new transposer      circle of 5ths    wap


A fun song to try out.

Technique
neomass1  
23 Dec 2010 02:01 | Quote
Joined: 10 Apr 2010
United States
Karma: 11

Divine Act Of Satan

Dmadd9
D||------------------------------------------|
A||------------------------------------------|
F||---------------0--------0--------0--------|
C||------------4-----4--------4--------4-----|
G||---------2-----------2--------2--------2--|
D||--0---------------------------------------|


|--3--| |--3--| |--3--| |--3--|
E E E E E E E E E E E E
--------------------------------------|
--------------------------------------|
-----------0--------0--------0--------|
--------4-----4--------4--------4-----|
-----2-----------2--------2--------2--|
--0-----------------------------------|


Dm13-
-----------------------------------------|
-----------------------------------------|
--------------0--------0--------0--------|
-----------4-----4--------4--------4-----|
--------3-----------3--------3--------3--|
--0--------------------------------------|


Dm9
--------------------------------------|---------------------------------------|
--------------------------------------|---------------------------------------|
-----------0--------0--------0--------|------------0--------0--------0--------|
--------4-----4--------4--------4-----|---------4-----4--------4--------4-----|
-----3-----------3--------3--------3--|------5-----------5--------5--------5--|
--0-----------------------------------|--0------------------------------------|


--------------------------------------|
--------------------------------------|
-----------0--------0--------0--------|
--------4-----4--------4--------4-----|
-----5-----------5--------5--------5--|
--0-----------------------------------|


Dmadd9
------------------------------------------|-------------------------------||
------------------------------------------|-------------------------------||
---------------0--------0--------0--------|-----------0--------0--------*-||
------------4-----4--------4--------4-----|--------4-----4--------------*-||
---------2-----------2--------2--------2--|-----2-----------2-------------||
--0---------------------------------------|--0----------------------------||


Dsus4/E
-------------------------------------------|
-------------------------------------------|
----------------2--------2--------2--------|
-------------2-----2--------2--------2-----|
----------0-----------0--------0--------0--|
--2----------------------------------------|


--------------------------------------|
--------------------------------------|
-----------2--------2--------2--------|
--------2-----2--------2--------2-----|
-----0-----------0--------0--------0--|
--2-----------------------------------|


Dmadd9 Dsus2add11+
---------------------------------------------------|
---------------------------------------------------|
---------------0--------3-----------------3--------|
------------4-----4-----------------4--------4-----|
---------2-----------2-----------------2--------2--|
--0------------------------------------------------|


A7sus4 Dmadd9
----------------------------------------------|
----------------------------------------------|
--2------------2--------0------------0--------|
---------4--------4------------4--------4-----|
------------2--------2------------2--------2--|
----------------------------------------------|


Dsus2add11+
-----------------------------------------------|
-----------------------------------------------|
-----------0--------3-----------------3--------|
--------4-----4-----------------4--------4-----|
-----2-----------2-----------------2--------2--|
--0--------------------------------------------|


A7sus4 Dmadd9
----------------------------------------------|
----------------------------------------------|
--2------------2--------0------------0--------|
---------4--------4------------4--------4-----|
------------2--------2------------2--------2--|
----------------------------------------------|


F E
--------------------------------------|
--------------------------------------|
-----------4-----------------3--------|
--------5-----5-----------4-----4-----|
-----5-----------5-----4-----------4--|
--3-----------------2-----------------|


D# Dmadd9
------------------------------------------|
------------------------------------------|
-----------2---------------------0--------|
--------3-----3---------------4-----4-----|
-----3-----------3---------2-----------2--|
--1-----------------0---------------------|


F E D# Dmadd9
^
--------------------------------------|--------------------0--------|
--------------------------------------|--------------------0--------|
-----------4-----------------3--------|-----------2--------0--------|
--------5-----5-----------4-----4-----|--------3-----3-----4--------|
-----5-----------5-----4-----------4--|-----3-----------3--2--------|
--3-----------------2-----------------|--1-----------------0--------|


Gmadd9
------------------------------------------|
---------------1--------1--------1--------|
------------4-----4--------4--------4-----|
---------2-----------2--------2--------2--|
--0---------------------------------------|
------------------------------------------|


--------------------------------------|
-----------1--------1--------1--------|
--------4-----4--------4--------4-----|
-----2-----------2--------2--------2--|
--0-----------------------------------|
--------------------------------------|


D#7Madd11+
----------------------------------------------|
-------------------1--------1--------1--------|
----------------4-----4--------4--------4-----|
-------------3-----------3--------3--------3--|
--0-------------------------------------------|
----------------------------------------------|

--------------------------------------|
-----------1--------1--------1--------|
--------4-----4--------4--------4-----|
-----3-----------3--------3--------3--|
--0-----------------------------------|
--------------------------------------|


Gmadd9
------------------------------------------|
---------------1--------1--------1--------|
------------4-----4--------4--------4-----|
---------2-----------2--------2--------2--|
--0---------------------------------------|
------------------------------------------|


--------------------------------------|
-----------1--------1--------1--------|
--------4-----4--------4--------4-----|
-----2-----------2--------2--------2--|
--0-----------------------------------|
--------------------------------------|


D#7Madd11+
----------------------------------------------|
-------------------1--------1--------1--------|
----------------4-----4--------4--------4-----|
-------------3-----------3--------3--------3--|
--0-------------------------------------------|
----------------------------------------------|


C6
--------------------------------------|--------------------------------------|
-----------1--------1--------1--------|-----------0--------0--------0--------|
--------4-----4--------4--------4-----|--------2-----2--------2--------2-----|
-----3-----------3--------3--------3--|-----0-----------0--------0--------0--|
--0-----------------------------------|--0-----------------------------------|
--------------------------------------|--------------------------------------|


A7
--------------------------------------|
-----------0--------0--------0--------|
--------2-----2--------2--------2-----|
-----1-----------1--------1--------1--|
--2-----------------------------------|
--------------------------------------|


slow down
Dmadd9
gx1327  
23 Dec 2010 02:17 | Quote
Joined: 20 Sep 2009
United States
Karma: 9
there's no rhythm..
BodomBeachTerror  
23 Dec 2010 13:40 | Quote
Joined: 27 May 2008
Canada
Lessons: 2
Licks: 1
Karma: 25
just listen to the song for the rhythm..
neomass1  
23 Dec 2010 23:24 | Quote
Joined: 10 Apr 2010
United States
Karma: 11
plus if you start to play around with it the rhythm just comes out of the song its self.
nullnaught  
24 Dec 2010 00:24 | Quote
Joined: 05 Jun 2010
Karma: 22
it sounds good even if you never heard the song
neomass1  
24 Dec 2010 03:39 | Quote
Joined: 10 Apr 2010
United States
Karma: 11
looks like some of the notes got spaced oddly. mmm I'll have to do better next time.


Copyright © 2004-2017 All-Guitar-Chords.com. All rights reserved.