new transposer      circle of 5ths    wap


Hears a short tune

Band Promotion
Notim  
16 Mar 2008 06:45 | Quote
Joined: 08 Dec 2007
United States
Karma: 9
Hey check out this short tune I wrote a little while back http://www.soundclick.com/members/default.cfm?member=Notim Then click on the artist page Heavy Laden thats what I called the band.
lance  
16 Mar 2008 06:51 | Quote
Joined: 03 Mar 2008
United States
Karma: 1
you need to register to listen
EMB5490  
16 Mar 2008 07:00 | Quote
Joined: 10 Feb 2008
United States
Lessons: 1
Licks: 1
Karma: 31
lol mature listeners only? 18+ lol wtf notim what did i tell u bout puttin porn on ur website lol. o mrs.notim? lol im jk it no work, post it on youtube or somthing or forward the link here
Notim  
16 Mar 2008 07:13 | Quote
Joined: 08 Dec 2007
United States
Karma: 9
LMAO sry guys I didnt know, this link will work........http://www.showcaseyourmusic.com/HeavyLaidin
EMB5490  
16 Mar 2008 08:09 | Quote
Joined: 10 Feb 2008
United States
Lessons: 1
Licks: 1
Karma: 31
at about 1:18, i feel is an appriopiate time for lyrics to come in, when it goes down low. thts really a gr8 tune, thts the classic rock sound. its like blues with heavy metal, one word: BEA-UTIFUL

tab it and put in lick folder?

kinda sound lynyrd skynyrdish at ennd and pink floydish at beginning cause they go from high to low and like break then continue, take away the ba da dup pa u no going up the string like muting it at around 44 secs, and at 24 or so secs and put it at end and it could the intro to a absolutely fantastic song.
telecrater  
16 Mar 2008 09:09 | Quote
Joined: 13 Jan 2008
United States
Lessons: 8
Karma: 13
It does have some potential.
lance  
16 Mar 2008 10:42 | Quote
Joined: 03 Mar 2008
United States
Karma: 1
well done. i did feel the lead needed to start to build up to a
higher key around 35 secs and then back down around 1:00,but overall
i really liked it.

there was alot of feeling in that song and people just don't play like
that anymore.
EMB5490  
16 Mar 2008 11:19 | Quote
Joined: 10 Feb 2008
United States
Lessons: 1
Licks: 1
Karma: 31
kinda hard to make out whats going on in middle it sounds somthing like ur muting the notes going up the frets but i cant tell
Notim  
16 Mar 2008 11:33 | Quote
Joined: 08 Dec 2007
United States
Karma: 9
Hey tys everyone!EMB the run in the middle is very very wierd I do mute some strings slightly because their kinda open runs that go down and quickly back up then quickly back down again its really hard to explain.
EMB5490  
16 Mar 2008 12:42 | Quote
Joined: 10 Feb 2008
United States
Lessons: 1
Licks: 1
Karma: 31
heres the beggining and end parts tabbed as well as i could



e-----------------------------------------------------
b--------------------8-8-6-5-6-5-6------------------
g--7bfr(hold)-5h7p5-7--------------7-5h7p5----------
d------------------------------------------7v-5---5-7v
a-----------------------------------------------7----
e-----------------------------------------------------

the end about 1:03


e---------------------------------------------------------------------------------------------
b------------------------------------------------------------------8-8-8-6-5-6-5-8-8-6-5-6-5--
g--5-4-5-7-5-4-5-7-(and reapte till)-7bf(hold)-7-7bfr-5v-----7bfr-5---------------------------
d-------------------------------------------------------7-5v---------------------------------7-5v
a---------------------------------------------------------------------------------------------
e---------------------------------------------------------------------------------------------
starts to fade out after

notims version is this


e--------------------------------------------------------------------------------------
b--------------------------------------------------------8-8-8-6-5-6-5-8-5h8p5---------
g--5-4-5-7-5-4-5-7(3 times)-7(HOld)-7bf-7-5----7bf-5h7p5-----------------------7-5h7p5-----
d-------------------------------------------7-5----------------------------------------7-5-
a--------------------------------------------------------------------------------------
e--------------------------------------------------------------------------------------

his vesion is somthing like tht i cant make it out.
im working on middle
Notim  
16 Mar 2008 13:01 | Quote
Joined: 08 Dec 2007
United States
Karma: 9
I feel Honored.
Guitarslinger124  
16 Mar 2008 16:37 | Quote
Joined: 25 Jul 2007
United States
Lessons: 12
Licks: 42
Karma: 38
Moderator
very nice EMB...think you could tab some of my solo's (just kidding!) hehe...i improvise most of my solo's so playing them twice is kinda hard.
EMB5490  
16 Mar 2008 16:49 | Quote
Joined: 10 Feb 2008
United States
Lessons: 1
Licks: 1
Karma: 31
lol not bad for som 1 whos been playing 4 3 months. i got gr8 musical ear from my dad(concert pianist). im off on some parts, and the beginning i made some minor changes but i think its good.
EMB5490  
16 Mar 2008 17:45 | Quote
Joined: 10 Feb 2008
United States
Lessons: 1
Licks: 1
Karma: 31
aha and finally the middle of notims song not very good, im tabbing with a cold and i didnt spend much time on it, feel free to critisize or change


e--------------------------------------------------------------------------------------
b--5-8-6p5-6-5-8-6p5-6-5-8-6p5-6-5-8bf-6h8p6-5-6-8-8bf-6h8p6-5-6-5-6-5-----------------
g--------------------------------------------------------------------------------------
d--------------------------------------------------------------------------------------
a--------------------------------------------------------------------------------------
e--------------------------------------------------------------------------------------

this wont be right, but its close and its what i can make out, its at about 35 36 secs when he starts trilling


e--------------------------------------------------------------------------------------
b---5h6p5h6p5 do tht a couple times until---------------------------------------8
g--7--------------------------------------palm mute some notes up to this-7-7bf---7-5
d-------------------------------------------------------------------------------------7
a-----------------------------------------------------------------------------------
e------------------------------------------------------------------------------------



e----------------------------------------------------------------------------------------
b----------------------------------------6-5-6-8-5h6p5---thn stuff tht i cant make out
g--thers stuff in between this-5h7p5-7-5-----------------
d-----------------------------7--------------------------
a-------------------------------------------------------------------------------------------
e---------------------------------------------------------------------------------------------

id try trilling on seval of these nots:
b--5h6p5-6-8 and reapete do slow and fast to mix with tempo then the end comes at 102 or 1:03
Notim  
16 Mar 2008 18:06 | Quote
Joined: 08 Dec 2007
United States
Karma: 9
well from what I remember of the lead I play some open Kinda runs from B all the way do to the A ( the wierd part) but I dont tab or anything so I really can't tell ya,and I do some quick stuff in between some of the slow stuff to change the tempo a bit and EMB this is the very first time anyone has ever tabed or I have ever seen any of my music on paper!!!!! Thanks EMB I am honored.
EMB5490  
16 Mar 2008 18:48 | Quote
Joined: 10 Feb 2008
United States
Lessons: 1
Licks: 1
Karma: 31
its not everything, the runs from b to a i could figure out, i got some of the quick parts inbetween, and most of the main sounds, i think its pretty good, may be a couple to many tempo changes but its pretty good. as i said b4 i got nothing else to do besides being sick so it was my pleasure
les_paul  
16 Mar 2008 22:15 | Quote
Joined: 14 Feb 2008
United States
Lessons: 3
Licks: 2
Karma: 11
I tried to give it a listen Notim but couldn't get it to play, I'm sure it rocks! I had the same problem on GS site.
Skold  
17 Mar 2008 17:12 | Quote
Joined: 14 Mar 2008
United States
Karma: 3
That's one sweet tune, man. Mind if I write some lyrics for it?
EMB5490  
17 Mar 2008 17:34 | Quote
Joined: 10 Feb 2008
United States
Lessons: 1
Licks: 1
Karma: 31
hey! i was doing tht. lol im not very good at it.
Notim  
17 Mar 2008 17:38 | Quote
Joined: 08 Dec 2007
United States
Karma: 9
Go for it dude!This tune was just a thought I had at the time (tune in the head)so i recorded it but really for know one to hear I'm really glad people like it. Do what ever you like with it....its just a thought.(long story....lol)
Skold  
17 Mar 2008 18:16 | Quote
Joined: 14 Mar 2008
United States
Karma: 3
Here you go,


"If I said that I were never goin' home, would you care?
If I said that I'd be leavin' sunday, would you just stare?
I've gotta know just how you feel right now, so I can decide.
Because I'd hate to know that I added to the tears you've cried?


Tell me now, cause I've gotta know where I'm gonna go.
My path's in your hands, and you know that I would follow you through the lands.
I've gotta make a choice on where I'm gonna rome.
If we don't decide, we'll never know that am never goin' home."


That's all I got right now.
Notim  
17 Mar 2008 19:54 | Quote
Joined: 08 Dec 2007
United States
Karma: 9
I like it ,your on the right track.
Skold  
17 Mar 2008 19:57 | Quote
Joined: 14 Mar 2008
United States
Karma: 3
Notim says:
I like it ,your on the right track.


Thanks! Once I'm done with them, you can have them.
EMB5490  
17 Mar 2008 20:48 | Quote
Joined: 10 Feb 2008
United States
Lessons: 1
Licks: 1
Karma: 31
u gotta put it on tape and record it and send it here lol ill put me playing the song on the guitar. its kinda bluesish. ill have more time to think when i go skiing this weekend.
Skold  
17 Mar 2008 21:04 | Quote
Joined: 14 Mar 2008
United States
Karma: 3
As soon as I figure out the chord, I'll record.
Notim  
17 Mar 2008 21:32 | Quote
Joined: 08 Dec 2007
United States
Karma: 9
the track back was is C# and I was in allmost a half step down if I remember right.Hope that helps.
Skold  
17 Mar 2008 22:20 | Quote
Joined: 14 Mar 2008
United States
Karma: 3
Notim says:
the track back was is C# and I was in allmost a half step down if I remember right.Hope that helps.


It does, but I'll probably just do a track over-lay kind of thing.


Copyright © 2004-2017 All-Guitar-Chords.com. All rights reserved.