new transposer      circle of 5ths    wap


pxm "An Old Tune - 1986 ."

Music and Bands
pxm  
7 May 2015 10:01 | Quote
Joined: 11 Jan 2012
Sweden
Licks: -3
Karma: 4
Hope U like this one, I recorded it today but wrote it 1986.
Heres a link to the song on Youtube;

https://youtu.be/-F5xY6OCZPs

And heres the tab whit chords for the head/melody;


"An Old Tune - 1986." by Johan Paxom.
120 bmp, 4/4, Amin.

01
Am7
E|---------------------
B|-----------6h7p6-----
G|------------------9--
D|--------7------------
A|-----7---------------
E|--5------------------

02
E5
E|-----
B|-----
G|-----
D|--9--
A|-----
E|-----

03
Dm7
E|--------------------
B|--------------------
G|--------------------
D|--------7--9--7-----
A|-----7-----------7--
E|--5-----------------

04
C5
E|-----------
B|-----------
G|-----------
D|--5--------
A|-----5--7--
E|-----------

05
G7 #Gm7b5
E|-----------------------
B|-----------------------
G|-----------------------
D|--------7--9--7--------
A|-----7-----------7-----
E|--5--------------------

repeat from bar 01.

06
Am7
E|--0--5--------
B|--------6-----
G|-----------7--
D|--------------
A|--------------
E|--------------

07
E5
E|------------------
B|--6--5h6p5--------
G|------------5--7--
D|------------------
A|------------------
E|------------------

08
Dm7
E|-----
B|-----
G|-----
D|--7--
A|-----
E|-----

09
C5
E|---------------------------
B|---------------------------
G|--7--5--7--9--10--9--7--5--
D|---------------------------
A|---------------------------
E|---------------------------

10
G7 #Gm7b5
E|---------
B|---------
G|----57--
D|---------
A|---------
E|---------

repeat from bar 06.

play the head all over once again.

solo/improvising part.

play the head.

End



Copyright © 2004-2017 All-Guitar-Chords.com. All rights reserved.