new transposer      circle of 5ths    wap


Tabs for this song?

Lessons
salimo  
30 Jan 2015 07:43 | Quote
Joined: 30 Jan 2015
Karma
Hi Guys,

i want to play this song on my guitar but i cant find the correct chords and the intro line.
Im playing guitar for 3 weeks and just im just using open chords because ive got some problems to play powerchords.
Maybe i can play this song with easy chords and how is the intro to play?
https://www.youtube.com/watch?v=AIBrBclexGI
Thanks a lot!
JustJeff  
31 Jan 2015 11:13 | Quote
Joined: way back
United States
Lessons: 2
Karma: 21


E|---2-----2-----2---5-5
B|-0---0-0---0-0---0----
G|----------------------
D|----------------------
A|----------------------
E|----------------------


E|---2-----2-----2-----5-5-
B|-----3-----3-----3-------
G|-0-----0-----0-----0-----
D|-------------------------
A|-------------------------
E|-------------------------

E|---2-----2-----2-----
B|-----3-----3-----3---
G|---------------------
D|-0-----0-----0-----0-
A|---------------------
E|-------------------------

Then A, Bm, A... into the drop.



That's my 5 second read on it. Not perfect, but it's something along these lines. maybe someone else can clean it up. Looking at it, The first chord is open to interpretation because there aren't a lot of notes... You have a B and a F#, which can be a Bmin, then D, then probably back to the Bm.

My guess would be Bm, D, G, A -> D -> A. The turn around into the drop is A to Bm back to A. You'll notice that's the bass notes he hits going into it. Try that out and see if it fits.


Just as a side note, this was really hard to watch. The song/video are soooo bad.
salimo  
4 Feb 2015 12:37 | Quote
Joined: 30 Jan 2015
Karma
thank you. it helped a lot and im trying to play this song right now.

"
Just as a side note, this was really hard to watch. The song/video are soooo bad."
i think this song is preety cool but this is still the magic of music: someone likes it and someone doesnt.
thanks for your work. it helped a lot.


Copyright © 2004-2017 All-Guitar-Chords.com. All rights reserved.