new transposer      circle of 5ths    wap


Your favorite B minor blues licks

Music Theory
Empirism  
12 Feb 2012 06:26 | Quote
Joined: 23 Jun 2008
Finland
Lessons: 4
Karma: 35
Hit me some your favorites, if you have posted one in the lick section, throw a link. Cheers!
Walkwithme  
12 Feb 2012 10:33 | Quote
Joined: 08 Feb 2012
United States
Licks: 5
Karma: 4
its really simple, but its fun to throw into a solo when ur improvisin.. here we go...



(/) Slide Up (\) Slide Down (h) Hammer On (p) Pull Off (b) Bend (r) Release (v) Vibrato


E|--------------------------------------------------------------17--17----------
B|--------------15--17--15--15--17--18--19--19--18--17--15------17b-17--15--15--
G|--14--16--14----------------------------------------------16------------------
D|------------------------------------------------------------------------------
A|------------------------------------------------------------------------------
E|------------------------------------------------------------------------------


the timing on this is kinda hard to explain, but take a rest after the SECOND 14 on the G string, and the FIRST 19 on the B string...

Enjoy!
-Walkk
Empirism  
12 Feb 2012 13:00 | Quote
Joined: 23 Jun 2008
Finland
Lessons: 4
Karma: 35
Cool, simple but still tasty. And you can easily vary that sequence quite easily. Cheers!
Walkwithme  
12 Feb 2012 17:34 | Quote
Joined: 08 Feb 2012
United States
Licks: 5
Karma: 4
Yeah its pretty simple and really easy to throw in the mix. glad u enjoy!(:

-Walkk
MoshZilla1016  
13 Feb 2012 16:40 | Quote
Joined: 10 Jul 2010
United States
Lessons: 4
Licks: 19
Karma: 16
This is an overused cliche lick but one of my favorites..


↑=BEND
e---------------7------------------
B-----7-10-7------10-7-------------
G--9↑--------9↑--------9-7-6-------
D----------------------------7-9---
A----------------------------------
E----------------------------------



Copyright © 2004-2017 All-Guitar-Chords.com. All rights reserved.