new transposer      circle of 5ths    wap


things I couldnt get on the lick section

Technique
thatguitarguy  
4 Apr 2011 19:45 | Quote
Joined: 24 Aug 2010
United States
Lessons: 1
Karma: 12
Ive been having a problem with putting my stuff in the lick section and Im sure Im not the only one ( or at least I hope not). So I thought I would start a thread for those cool little things that cant be seen. Please post your own if you get the urge.

here is one of mine thats in the second mode of the B major scale
e-----------------------------------------------------|------------------------------------------------------|
B----------------------------------------------------|-------------------------------------------------------|
G-----------------------------------5---------------|-------------------------------------------------------|
D----------5----8--5----7--5------------8----7----|----------5----8--5----7--5-------------------------|
A-------6----6--------6--------6-----6-----6-------|-------6----6--------6--------6--8--6--5--6--5---|
E----8-----------------------------------------------|---8--------------------------------------------------|


thatguitarguy  
4 Apr 2011 19:46 | Quote
Joined: 24 Aug 2010
United States
Lessons: 1
Karma: 12
those lines should be straight but you get the idea
nullnaught  
4 Apr 2011 19:55 | Quote
Joined: 05 Jun 2010
Karma: 22
Those lines look great to me. When i try to post a tab it comes out wrong and i have to correct it a few times before it comes out right. And if someome posts between corrections im screwed then i cant edit it at that point. Is there a trick to having it come out the same as it looks before posting?
gshredder2112  
4 Apr 2011 19:57 | Quote
Joined: 03 Sep 2010
United States
Licks: 3
Karma: 22
at the beginning of your tab you put tab like this>>> [tab ]< without that space at the end of your tab you put tab lik this>>>>[/tab ]





e--------
b---------
g--------
d--------
a---------
e---------
thatguitarguy  
4 Apr 2011 20:01 | Quote
Joined: 24 Aug 2010
United States
Lessons: 1
Karma: 12
I found that it looks better when you wright it on a word processor or some thing like it, copying and pasting, and not changing how it looks rather than writing it all out on the post. remember to preview it first though. I had to preview this first one 80 times before getting it. also if the preview doesn't look right try adding a few lines to get them straighter. I hope this helps so you can put something up.
gshredder2112  
4 Apr 2011 20:01 | Quote
Joined: 03 Sep 2010
United States
Licks: 3
Karma: 22
so this->>> goes at the end and this>>>>>

at the beginning
thatguitarguy  
4 Apr 2011 20:01 | Quote
Joined: 24 Aug 2010
United States
Lessons: 1
Karma: 12
Or that
lol
gshredder2112  
4 Apr 2011 20:02 | Quote
Joined: 03 Sep 2010
United States
Licks: 3
Karma: 22
you can do it luke thar,but add the tab syntax and the will look great
gshredder2112  
4 Apr 2011 20:04 | Quote
Joined: 03 Sep 2010
United States
Licks: 3
Karma: 22
so its

first in front of ure tab
gshredder2112  
4 Apr 2011 20:06 | Quote
Joined: 03 Sep 2010
United States
Licks: 3
Karma: 22
damn it every time i do an exaample it comes up as a tab lmao
thatguitarguy  
4 Apr 2011 20:08 | Quote
Joined: 24 Aug 2010
United States
Lessons: 1
Karma: 12
one more. this one is a fast G phrygian alternate picking lick.


e----------------------|--------------------------|
B----------------------|--------------------------|
G----------------------|--------------------------|
D--5-5-5-6-5---5-------|--5-5-5-6-5-5-8-5-5-6-5-5-|
A------------8---6-8-5-|--------------------------|
E----------------------|--------------------------|
thatguitarguy  
4 Apr 2011 20:09 | Quote
Joined: 24 Aug 2010
United States
Lessons: 1
Karma: 12
that looks much better lol
nullnaught  
4 Apr 2011 20:12 | Quote
Joined: 05 Jun 2010
Karma: 22

-------------------------------------
---5-5---5-7-5-----------------------
--------6--------6-6-4-6-4-----------
-------------------------------------
-------------------------------------
-------------------------------------

Why would i write in the string names? Isn't that obvious.

And writing it first somewhere else like on wordpad document is great idea.
gshredder2112  
4 Apr 2011 21:54 | Quote
Joined: 03 Sep 2010
United States
Licks: 3
Karma: 22
null,the reason for the string names is for beginners,and pekple who use alternate tunings.


E------------------------------|
B-------------------------------|
G-------------------------------|
D---------------------9-10------|
A-----------8--10--12-----------|
E----8-10-12--------------------|
my favorite way to play cmaj
nullnaught  
4 Apr 2011 21:57 | Quote
Joined: 05 Jun 2010
Karma: 22
I can see it being for beginers who might play it upside down. But it should be impied as regular tuning if left alone.
gshredder2112  
4 Apr 2011 22:03 | Quote
Joined: 03 Sep 2010
United States
Licks: 3
Karma: 22
yeah thats true^^^
nullnaught  
4 Apr 2011 22:09 | Quote
Joined: 05 Jun 2010
Karma: 22
Someone guess the tab above i did. Should be easy.
gshredder2112  
4 Apr 2011 22:15 | Quote
Joined: 03 Sep 2010
United States
Licks: 3
Karma: 22
camptown.races?
thatguitarguy  
7 Apr 2011 07:51 | Quote
Joined: 24 Aug 2010
United States
Lessons: 1
Karma: 12


e------------------|----------------|------------------|
B------------------|----------------|------------------|
G------3/7-3-----3-|------3/7-3----3|------3/7-3-----3-|
D--3/5-------5-5---|--3/5-------55--|--3/5-------5-5---|
A------------------|----------------|------------------|
E------------------|----------------|------------------|

e--------------------------|
B--------------------------|
G------3/6-6--35---353-----|
D--3/5-----------------5-3-|
A--------------------------|
E--------------------------|


this is a wooden metal lick that may take a little bit of explaining. especialy for bars 2 and 4. in bar 2 the 5 on the D string is played a little faster than in the first and third bars. in bar 4 those close notes are all hammer ons and pull offs. Injoy.
thatguitarguy  
10 Apr 2011 16:34 | Quote
Joined: 24 Aug 2010
United States
Lessons: 1
Karma: 12


e--------------------------------|
B--------------------------------|
G--------------------------------|
D------7---7-----8---8---5-------|
A----7---7---7-----7---7---7-5-7-|
E--5-----------5-----------------|


this sound really cool if you add some cool vibrato on that last note.
JazzMaverick  
10 Apr 2011 19:41 | Quote
Joined: 28 Aug 2008
United Kingdom
Lessons: 24
Licks: 37
Karma: 47
Moderator
That's the problem now-a-days... no one can be bothered to put in effort in their work. It's as if no one cares to be proud of their own work.

Tabs are half assed "can't be bothered" to read & write notation to begin with. But now people (even people at my Uni) can't even be bothered to write up simple tab strings letters?? Good luck is all I can say to anyone who does that... that's all I can say.
gshredder2112  
10 Apr 2011 20:54 | Quote
Joined: 03 Sep 2010
United States
Licks: 3
Karma: 22
i wish i could read music,ive tried to learn it a million times,but i guess im not smart enough..

but i do like tabs with the names of the strings,looks neater.
nullnaught  
10 Apr 2011 23:26 | Quote
Joined: 05 Jun 2010
Karma: 22
@ jazzy. How do you write standard notaion on a computer like you can do with tabs.

I think whats cool is when tabs has standard notation above it. That way u see the timeimg. And sometimes tabs have the timeing above them.
thatguitarguy  
11 Apr 2011 18:37 | Quote
Joined: 24 Aug 2010
United States
Lessons: 1
Karma: 12
I like tab mostly because I can read it right now. Im learning how to read music but its slow going. another thing I like about tab is that you could take it some where else. the way I play the things Ive put on this may not be the way that someone else would if they bothered to try it but its still sounds cool. now when it comes to professional music Im learning I prefer tab with the music over it or just regular notation but it takes time for me to figure it out. there is good and bad things about both ways of writing music.
JustJeff  
11 Apr 2011 23:03 | Quote
Joined: way back
United States
Lessons: 2
Karma: 21
Tabs are nice because it boils a huge thing like the musical staff down to 6 strings. Of course, it's also not nice because it completely isolates the guitar part from any other part in the band >.
thatguitarguy  
15 Apr 2011 00:19 | Quote
Joined: 24 Aug 2010
United States
Lessons: 1
Karma: 12
Tab also shows exactly where to put your hands.
thatguitarguy  
15 Apr 2011 00:28 | Quote
Joined: 24 Aug 2010
United States
Lessons: 1
Karma: 12
something cynicy I made one day when I was feeling smart


e-----------------------------------------|
B-----------------------------------------|
G-----------------------------------------|
D-------------------------------------2-2-|
A------------5-5------------5-5-----------|
E--2-2--4-4-------2-2--4-4-------4-4------|

e-----------------------------------------|
B-----------------------------------------|
G-----------------------------------------|
D------------6-6------------6-6--4-4------|
A--2-2--4-4-------2-2--4-4----------------|
E-------------------------------------5-5-|


this sounds really great when it ends on a heavily vibratoed B note on the A string.
gshredder2112  
15 Apr 2011 00:29 | Quote
Joined: 03 Sep 2010
United States
Licks: 3
Karma: 22
neato!
thatguitarguy  
15 Apr 2011 09:17 | Quote
Joined: 24 Aug 2010
United States
Lessons: 1
Karma: 12
why thank you.
gshredder2112  
15 Apr 2011 11:25 | Quote
Joined: 03 Sep 2010
United States
Licks: 3
Karma: 22
snot a problem.


Copyright © 2004-2017 All-Guitar-Chords.com. All rights reserved.