new transposer      circle of 5ths    wap


tell whatcha think #2

General Chat
johnnysixstring  
18 May 2010 22:27 | Quote
Joined: 21 Mar 2010
United States
Licks: 8
Karma: 1


tempo: 135bpm
timing:4/4
key of A major

guitar #1
e------------------------------------
b------------------------------------
g------------------------------------
d------------3-5-7-------------------
a------4-5-6-------5-7-5-4---4-------
e--5-6---------------------6---6-5---
1 2 3 4 1 2 3 4


guitar #2
e------------------------------------
b------------------------------------
g--2----------------2----------------
d--2----------------2----------------
a--0----------------0----------------
e------------------------------------
1 2 3 4 1 2 3 4

bass
g------------------------------------
d------------3-5-7-------------------
a------4-5-7-------5-7-5-4---4-------
e--5-6---------------------6---6-5---
1 2 3 4 1 2 3 4





Mistaluke  
18 May 2010 22:31 | Quote
Joined: 23 Mar 2010
Karma: 11
lol seems cool!
Not very hard though but it sounds nice :)


Copyright © 2004-2017 All-Guitar-Chords.com. All rights reserved.