new transposer      circle of 5ths    wap


what do you all think of this

General Chat
johnnysixstring  
15 May 2010 08:13 | Quote
Joined: 21 Mar 2010
United States
Licks: 8
Karma: 1
i just want to hear your all commets and advice on this riff.i might be adding it into one of my songs. thank you



standard tuning:

lead guitar
e-------------------------------------
b-------------------------------------
g-------------------------------------
d----------------------5--------------
a-----5h7p5--5-5--5h6h7--7p6p5--------
e--5h8-----8-------------------5*-----

rhythm guitar (up an octave)
e-------------------------------------------------
b-------------------------------------------------
g-------------------------------12----------------
d------12h13p12--12-12--12h13h14--14p13p12--------
a-12h15--------15-------------------------12------
e-------------------------------------------------




ChicagoMedic  
16 May 2010 12:28 | Quote
Joined: 21 Jul 2009
United States
Karma: 7
i'd need to hear it in context...can ya record it and share?
JazzMaverick  
16 May 2010 14:21 | Quote
Joined: 28 Aug 2008
United Kingdom
Lessons: 24
Licks: 37
Karma: 47
Moderator
Tab sucks man... learn to read music.
Empirism  
17 May 2010 00:26 | Quote
Joined: 23 Jun 2008
Finland
Lessons: 4
Karma: 35
I tested it, it sounds allright with two guitars. Little Iron Maiden style eh? :P... but yeah, like Jazz said, tabs are bit bad to know how you meant it to be played. No key, no tempo or anything... (well, I suck with notation anyway...haha)
johnnysixstring  
18 May 2010 18:19 | Quote
Joined: 21 Mar 2010
United States
Licks: 8
Karma: 1
sorry here it all is......

key: A major

tempo: 185bpm

time signature: 4/4

thats it.
EMB5490  
18 May 2010 18:24 | Quote
Joined: 10 Feb 2008
United States
Lessons: 1
Licks: 1
Karma: 31
thats nice and all but we need the timing for the notes... ex. whole half quarter 8th 16th etc...

185 tempo?? thats a bit rediculous? insanly fast... you may be counting in 8th notes instead of quarter notes. its probably half of that so around 90 bpm... i mean i could be wrong... your song but thats a very fast tempo.
johnnysixstring  
18 May 2010 18:29 | Quote
Joined: 21 Mar 2010
United States
Licks: 8
Karma: 1
your right i sorry i have trouble with that stuff. messed up i did a about double.
EMB5490  
18 May 2010 19:25 | Quote
Joined: 10 Feb 2008
United States
Lessons: 1
Licks: 1
Karma: 31
haha np the best thing... would be a recording! get out that camera


Copyright © 2004-2017 All-Guitar-Chords.com. All rights reserved.