new transposer      circle of 5ths    wap


arpeggios by:decades of darkness

Lessons
johnnysixstring  
21 Mar 2010 13:21 | Quote
Joined: 21 Mar 2010
United States
Licks: 8
Karma: 1
arpeggio number 1

E-----------------------------------------------------------------
B----------------12h13p12-----------------------------------------
G-------------14----------14p12-----------------------------------
D----------14-------------------15p14p12--------------------------
A----12h15--------------------------------15p14p12----------------
E-----------------------------------------------------------------
ARPEGGIO NUMBER 2
E-----------6-------------------------------------------------
B---------6---6------------------------------------------------
G-------7-------7-----------------------------------------------
D--5h8--------------------------------------------------------
A----------------------------------------------------------------
E----------------------------------------------------------------


Guitarslinger124  
21 Mar 2010 13:29 | Quote
Joined: 25 Jul 2007
United States
Lessons: 12
Licks: 42
Karma: 38
Moderator
Sounds cool man. But This belongs in the licks portion of this site.
Click here for Licks section


Copyright © 2004-2017 All-Guitar-Chords.com. All rights reserved.