new transposer      circle of 5ths    wap


metal guitar riff by:decades of darkness

Songwriting
johnnysixstring  
21 Mar 2010 13:04 | Quote
Joined: 21 Mar 2010
United States
Licks: 8
Karma: 1
DROP D TUNING

E---------------------------------------------------------------
B---------------------------------------------------------------
G---------------------------------------------------------------
D----3---3---5--5---7---7---8------8p0---8h11p8-7---7p0--7h8p7-5
A----5---5---7--7---8---8---10---------10---------------8-------
D-00--00--00--00--00--00--00-----00---------------00------------

E---------------------------------------------------------------
B---------------------------------------------------------------
G---------------------------------------------------------------
D----5p0-5h7p5-3--3p0--3p5h3p0----2p0------3p0---555/7----------
A-------7-------------5---------------3--------5-333/5----------
D--00------------00-------------00------00----------------------


Copyright © 2004-2017 All-Guitar-Chords.com. All rights reserved.