new transposer      circle of 5ths    wap


bass solo by: decades of darkness

Songwriting
johnnysixstring  
21 Mar 2010 10:07 | Quote
Joined: 21 Mar 2010
United States
Licks: 8
Karma: 1

g----------------------------------------7----------------------
G--------5--------------7-8-7-5---------5---54-5-4-------------
A--7-5-7----7-5--7-5--7----------7--5-7--------------5p2--2/5---
E---------------------------------------------------------------

G---------------------------------------------------------------
D-------14-------17--17-15-14-----------------------------------
A--5/12----12/15--------------15-14-12--------------------------
E--------------------------------------13--12--1/3p1---((0))--

G--------------------------------------------------------------
D--------------------------------------------------------------
A-------------------------3-5-3-0-3-0-3------------------------
E---333-333-333-333-333-5---------------5-3-1-0----------------

G----------------------------------------------------------------
D----------------------------------------------------------------
A----------00-320---------------00-320---------------------------
E--00-3/555-------3---00--3/555---------1---00-00-00-3/5--00-00--

G----------------------------------------------------------------
D-----------------5h7p5h7----4h5p4h5----2h3p2h3-----0h20h2-------
A----------------------------------------------------------------
E-00-5/75-3----55---------33---------11---------00--------------

G------2----------------2---------------2------------------------
D----3---3-2h3p2------3---3-2h3p2-----3---3-2h3p2----------------
A--5-------------5--5-------------3-5----------------((1b))------
E----------------------------------------------------------------









Copyright © 2004-2017 All-Guitar-Chords.com. All rights reserved.