new transposer      circle of 5ths    wap


Figuring out the key of this song... need help.

Music Theory
SoreBack  
25 Feb 2010 17:57 | Quote
Joined: 25 Feb 2010
Karma
E--3----5----5----------------------------
B--3----5--------------------------------
G--0----0--------------------------------
D--2----4----5----------------------------
A--3----5----7----------------------------
E--------------------------------------

Thats my progression, Its like very similar to all along the watch tower, the roots go from C, to D, E on the root(A string) so the key of Cmajor consist of these chords, so it would be in the key of C right? But it doesnt sound right when i try to solo over it. Same with this one, easier...

E--------------------------------------
B--------------------------------------
G--------------------------------------
D----9--7--5--7--9--------------------------
A----7--5--3--5--7--------------------------
E--------------------------------------

Same roots, C, D , E but once again the c pentatonic scale doesnt sound right over it.
BodomBeachTerror  
25 Feb 2010 18:10 | Quote
Joined: 27 May 2008
Canada
Lessons: 2
Licks: 1
Karma: 25
im pretty sure its Eminor. thats what i would do anyway
case211  
25 Feb 2010 22:26 | Quote
Joined: 26 Feb 2009
United States
Lessons: 2
Licks: 6
Karma: 24
I agree with BBT, I would also try C Major/A minor.
JustJeff  
25 Feb 2010 22:27 | Quote
Joined: way back
United States
Lessons: 2
Karma: 21
That's cause it's not C...

Play the G major Pentatonic, or the Eminor pentatonic.

Those should work fine.
case211  
25 Feb 2010 22:34 | Quote
Joined: 26 Feb 2009
United States
Lessons: 2
Licks: 6
Karma: 24
cool, thanks for clarifying that for ME jeff lol :D
JustJeff  
25 Feb 2010 22:58 | Quote
Joined: way back
United States
Lessons: 2
Karma: 21
sorry, was programming a keyboard scanner... didn't realize that you had posted :)
Schecter_player  
25 Feb 2010 23:51 | Quote
Joined: 12 Jul 2009
Canada
Karma: 3
Yeah, you're D major chord doesn't fit into C. That nasty F# eh?


Copyright © 2004-2017 All-Guitar-Chords.com. All rights reserved.