new transposer      circle of 5ths    wap


anybody know these tabs?

Technique
guitarbadass  
25 Oct 2009 12:45 | Quote
Joined: 04 Oct 2009
United States
Karma: 1
i,m lookin 4 the intro rhythm guitar part 4 walk with me in hell by lamb of god,does anybody know them or where i can find?,,,lemme know,,,thanx
Empirism  
25 Oct 2009 13:38 | Quote
Joined: 23 Jun 2008
Finland
Lessons: 4
Karma: 35

G|---------------------------------------------------|
D|---------------------------------------------------|
A|---------------------------------------------------|
D|-0-0-0-0-0-0---0-0-0-0--1-0--0-0-0-0-0-0-----------|


G|---------------------------------------------------|
D|---------------------------------------------------|
A|---------------------------------------------------|
D|-0-12-10--0-10-8--0-8-7--0-7-5--0-5-3-1------------|

G|---------------------------------------------------|
D|---------------------------------------------------|
A|---------------------------------------------------|
D|-0-0-0-0-0-0---0-0-0-0--1-0--0-0-0-0-0-0-----------|

G|---------------------------------------------------|
D|---------------------------------------------------|
A|---------------------------------------------------|
D|-0-12-10--0-10-8--0-8-7--0-7-5--0-5-3-1------------|

G|-----------------------------------------------------------------------|
D|-----------------------------------------------------------------------|
A|-----------------------------------------5-3-1-3-1-0-1-0---0-----------|
D|-6-6-6-6-6-6-6-6--7-6-7-6--6-6-6-6-6---6-----------------5---3-5-3-1---|

G|---------------------------------------------------|
D|---------------------------------------------------|
A|---------------------------------------------------|
D|0-0-0-0-0-0--0-0-0-0--1--0-0-0-0-0-0-0---pause-----|



Verse Part 2

G|-------------------------------------------------------------------------|
D|--------------------------------------------5-4---5-7-8-7-5-7-5-4-5------|
A|-------------------------------------6-5---------------------------------|
D|-0-0-0-0-1-0-0-0--0-0-0-0-1-0-0-0-0------0------0------------------------|

G|-------------------------------------------------------------------------|
D|------------------------------------------5-4----5-7-8-7-5--12-10-8-10---|
A|------------------------------------6-5----------------------------------|
D|0-0-0-0-1-0-0-0--0-0-0-0-1-0-0-0-0------0-----0--------------------------|

G|---------------------------------------------|
D|---------------------------------------------|
A|---------------------------------------------|
D|-8-8-8-8-8-8--8-8-8-8--10-8-10-8--8-8-8-8-8--|

G|---------------------------------------------|
D|---------------------------------------------|
A|---------------------------------------------|
D|-12-10-8-10-8-7-8-7-5-7-5-3-5-3-1------------|



Chorus

G|---------------------------------------------------------------------------|
D|---------------------------------------------------------------------------|
A|----------------------------5------5---------------------------------------|
D|-0--0-0-0--0--0-0-0--0--0-0----0-0----0-0-0-3333---------------------------|

G|---------------------------------------------------------------------------|
D|---------------------------------------------------------------------------|
A|----------------------------5-----5-----5-----5----------------------------|
D|-0--0-0-0--0--0-0-0--0--0-0---0-0---0-0---0-0---0-0-10101010---------------|


G|---------------------------------------------------------------------------|
D|---------------------------------------------------------------------------|
A|---------------------------------------------------------------------------|
D|-8--8--8--8--8888--8--8--8--8--10101010--8--8--8--8--8888----pause---------|



Verse

G|-------------------------------------------------------------------------|
D|--------------------------------------------5-4---5-7-8-7-5-7-5-4-5------|
A|-------------------------------------6-5---------------------------------|
D|0-0-0-0-1-0-0-0--0-0-0-0-1-0-0-0-0------0------0-------------------------|

G|-------------------------------------------------------------------------|
D|------------------------------------------5-4----5-7-8-7-5--12-10-8-10---|
A|------------------------------------6-5----------------------------------|
D|0-0-0-0-1-0-0-0--0-0-0-0-1-0-0-0-0------0-----0--------------------------|

G|---------------------------------------------|
D|---------------------------------------------|
A|---------------------------------------------|
D|-8-8-8-8-8-8--8-8-8-8--10-8-10-8--8-8-8-8-8--|

G|---------------------------------------------|
D|---------------------------------------------|
A|---------------------------------------------|
D|-12-10-8-10-8-7-8-7-5-7-5-3-5-3-1------------|

G|---------------------------------------------------|
D|---------------------------------------------------|
A|---------------------------------------------------|
D|0-0-0-0-0-0--0-0-0-0--1--0-0-0-0-0-0-0---pause-----|



Verse - Heavy Part

G|---------------------------------------------------------|
D|-------------------------5-4---5-7-8-7-5-7-5-4-5---------|
A|-------------------6-5-----------------------------------|
D|0-0-0001-0-1000-0------0-----0---------------------------|

G|---------------------------------------------------------|
D|-------------------------5-4---5-7-8-7-5--12-10-8-10-----|
A|-------------------6-5-----------------------------------|
D|0-0-0001-0-1000-0------0-----0---------------------------|

G|---------------------------------------------|
D|---------------------------------------------|
A|---------------------------------------------|
D|-8-8-8-8-8-8--8-8-8-8--10-8-10-8--8-8-8-8-8--|

G|---------------------------------------------|
D|---------------------------------------------|
A|---------------------------------------------|
D|-12-10-8-10-8-7-8-7-5-7-5-3-5-3-1------------|



Chorus

G|---------------------------------------------------------------------------|
D|---------------------------------------------------------------------------|
A|----------------------------5------5---------------------------------------|
D|-0--0-0-0--0--0-0-0--0--0-0----0-0----0-0-0-3333---------------------------|

G|---------------------------------------------------------------------------|
D|---------------------------------------------------------------------------|
A|----------------------------5-----5-----5-----5----------------------------|
D|-0--0-0-0--0--0-0-0--0--0-0---0-0---0-0---0-0---0-0-10101010---------------|


G|---------------------------------------------------------------------------|
D|---------------------------------------------------------------------------|
A|---------------------------------------------------------------------------|
D|-8--8--8--8--8888--8--8--8--8--10101010--8--8--8--8--8888----pause---------|


Is this what you looking for? Bear in mind its drop D tuning
JustJeff  
25 Oct 2009 13:41 | Quote
Joined: way back
United States
Lessons: 2
Karma: 21
www.ultimate-guitar.com

If you can't find it there, work on your ear :) That's what I do nowadays
guitarbadass  
25 Oct 2009 15:50 | Quote
Joined: 04 Oct 2009
United States
Karma: 1
thanx but i meant the rhythm that willie plays at the begining of the song the rhythm under the intro solo,
JustJeff  
26 Oct 2009 11:23 | Quote
Joined: way back
United States
Lessons: 2
Karma: 21
http://www.ultimate-guitar.com/search.php?s=Walk+with+me+In+Hell&w=songs

If you need guitar pro,
http://www.filedropper.com/guitarpro5

Download that file. I just hosted it. It's the zipped version of GP5. Will be able to read any GuitarPro tab file you want.

Now, go do this stuff yourself.
guitarbadass  
27 Oct 2009 00:10 | Quote
Joined: 04 Oct 2009
United States
Karma: 1
never mind dudes i just found,em thanx anyway though,,,,


Copyright © 2004-2017 All-Guitar-Chords.com. All rights reserved.