new transposer      circle of 5ths    wap


A Cool Solo

Music and Bands
EMB5490  
14 Apr 2009 17:39 | Quote
Joined: 10 Feb 2008
United States
Lessons: 1
Licks: 1
Karma: 31
backing chords are bminor, eminor, gmajor and f# major.

1 bar of each. try your best solo over here, i kinda wana see what everyone comes with. this is what i got. try nd play it, i think its cool. i love the f# maj to bminor. awsome classical 5th move there. and although f# is minor in the key of d im going in the minor key. the f# is the 5th of the bminor, so i play it as the major.

heres waht i got.
i start it on the 4th beat of f#

triplet
e-----7--------7-9-10-9-7-10-9-7--------------
b-------7-10b~-------------------10b-10b------
g--9b------------------------------------9pbr-9b-9b-6-7-6---------9b-
d---------------------------------------------------------9-
a-----------------------------------------------------------7-8-9-
e--




e---------------7-10b-10bp7-----7-10p7----7-9-10-12p9-----9-10-12-
b-------------7-------------10b--------8~-------------10~-
g--9bp7----9b-
d-------9~-
a--
e--



(repeat 4x) triplet
e--14p10----10-15p10----12-17p12----18p14-----17b-17b~-19-21-22-21-19
b--------12----------14----------14-------14--
g--
d--
a--
e--




e--22br-21-19-
b-------------22b-22b-----22--------------------------------17p15p14-
g---------------------21b----21b-21br-19-----------15-16-15--------
d----------------------------------------21~-14-16-
a--
e--




e-------------------------------------
b----------17-------------------------14-14-14h15p14----14-15-17-17b
g--16~-16b----16b-16brp15-16-16-15-16----------------16-
d--
a--
e--




e---------------19-----------------------------------------------19-
b--17~-19-20-22----22-20-22-20-19-20-19----19----------------22b----
g---------------------------------------21----21-19-21-19-18-
d--
a--
e--



8x 8x 8x 8x
e------18-19-21-22p19----21p18----19p15----18p14----17b~~~~~~~~
b--22b----------------19-------19-------17-------14-
g--
d--
a--
e--


el fin. ill post a vid of me playing it so u can hear what it sounds like, but i think its pretty cool.
blackholesun  
14 Apr 2009 17:53 | Quote
Joined: 04 Jan 2007
United Kingdom
Licks: 1
Karma: 11
Moderator
It's pretty funny that you notate some notes as being triplets, but you don't tell us what the other note lengths are! :P
EMB5490  
14 Apr 2009 17:57 | Quote
Joined: 10 Feb 2008
United States
Lessons: 1
Licks: 1
Karma: 31
yeh sorry. i got mad lazy lol. ill go edit them in..

edit:or maybe not the edit isnt working...once i post the vid of me playing it youll see how it sopposed to sound.


Copyright © 2004-2017 All-Guitar-Chords.com. All rights reserved.