new transposer      circle of 5ths    wap


patterns

Technique
keithmark13  
31 Mar 2009 17:50 | Quote
Joined: 23 Mar 2009
United States
Lessons: 1
Karma: 1
I need help I'm looking for a scale pattern that descends, then ascends. something like this but not like this, if you get what i mean?


e|---------------------------------------------------------------------------|
B|---------------------------------------------------------------------------|
G|-----------------------------------------------------4---------------------|
D|------------------------------4-----------4-5-7-4-5-7--7-5-4---------------|
A|------3-----------3-5-7-3-5-7----7-5-3-5-7---------------------------------|
E|3-5-7---7-5-3-5-7----------------------------------------------------------|

Help would be greatly appreciated :]
EMB5490  
31 Mar 2009 18:00 | Quote
Joined: 10 Feb 2008
United States
Lessons: 1
Licks: 1
Karma: 31
well what you did there was a g major scale. every scale acends and decends. not sure what u mean.
keithmark13  
31 Mar 2009 18:07 | Quote
Joined: 23 Mar 2009
United States
Lessons: 1
Karma: 1
like i mean its obviously not played G A B C D E F F# in consecutive order. Its still in a pattern though. But like in that it goes G A B C B A G G A B C D E...and then it repeats that pattern on the next string the same way. I'm looking for something like that. But one that is a bit different. I'm just looking for a pattern, not any specific key cuz im gonna be modding this to E Minor then. I just can't figure one out.
EMB5490  
31 Mar 2009 18:26 | Quote
Joined: 10 Feb 2008
United States
Lessons: 1
Licks: 1
Karma: 31
like going in thirds or 4ths?
keithmark13  
31 Mar 2009 18:56 | Quote
Joined: 23 Mar 2009
United States
Lessons: 1
Karma: 1
no i figured one out
thanks anyways

e|---------------------------------------------------------------------------|
B|---------------------------------------------------------------------------|
G|-------------------------3-5-7--------7-8-10----------------------------------------|
D|---------5-7-8--3-5-7-------7-8-10--------10-12-14-------------------------------------------|
A|-5-6-8--------------------------------------------------------------------------|
E|---------------------------------------------------------------------------|

guitarmastergod  
2 Apr 2009 00:08 | Quote
Joined: 09 Sep 2008
Canada
Karma: 8
look up rusty cooley's rock house dvd. theres lots of stuff like this. i would show you some but i dont really wanna waste my time, sorry. mainly cause theyre kinda long
Geoff250999  
4 Apr 2009 00:07 | Quote
Joined: 13 Dec 2008
Australia
Karma
never seen that pattern before



Copyright © 2004-2017 All-Guitar-Chords.com. All rights reserved.