new transposer      circle of 5ths    wap


finger pickin good

General Chat
hippie_cune  
27 Sep 2006 12:21 | Quote
Joined: way back
Karma: 1
hey guys, been awhile.. ive been busy at school and such (music major)

but ive recently wanted to pick up finger picking since my right hand is getting a bit more dexterity (ive got a piano class in college)..

anyone know any good pickin songs? once again, i like more of the 60s stuff.. i know dylan would be good and theres probably some beatles tunes..

but ill take any suggestions.

also.. does anyone know where i can learn the clawhammer technique?
ive heard its the best way to pick, but i cant find any thing on it.
CostacheCaragi  
27 Sep 2006 16:18 | Quote
United Kingdom
Posts: 61
i learnt some iron and wine when i first learnt to finger pick, Stairway to heaven! yeah!
paerdeveygh  
1 Oct 2006 07:12 | Quote
Joined: way back
Finland
Lessons: 1
Karma
A nice fingerpicking pattern is:

C G
--------0----------0------
--------------------------
---0--0-------0-0----0----
-----2---2-----0----0-----
--3----3------------------
-------------3---3-------- ETC:

I use it in a lot.
paerdeveygh  
1 Oct 2006 07:20 | Quote
Joined: way back
Finland
Lessons: 1
Karma
Once more, only a C major, all are 1/8 notes:

------------------------0-----------
------------------------------------
--------0------0----------------0---
-----------2-----------------2------
-----3------------------------------
-------------------3----------------
luckyhubbie  
23 May 2007 09:45 | Quote
United States
Posts: 69
Simon and Garfunkle have alot of finger picking songs. Bridge over troubled water and sound of silence. House of the rising sun by the animals.
soy.el.che  
23 May 2007 18:05 | Quote
Joined: way back
Mexico
Lessons: 1
Karma: 9
have you heard paco de lucia? he is one of the best fingerpickers ive heard... some parts of some songs of him are easy, and its always fingerpicking.
and i recomend to play with arpegios in minor scales, such es these

-----0----2----3----5----7-----8-
----1----3----5----7----8----10--
---0----0----0----0----0----0----
---------------------------------
---------------------------------
--0----0----0----0----0----0-----

and then change the order in which you hit strings... this is a lick of my own..( i thnk im the first guy playing it )..


Copyright © 2004-2017 All-Guitar-Chords.com. All rights reserved.