new transposer      circle of 5ths    wap


Diary of a madman intro

Lessons
macandkanga  
20 Nov 2008 13:24 | Quote
Joined: 03 Oct 2008
United States
Karma: 21
e----------0-------|---------0-------|---------5-------|---------5-------|
B--------4---4-----|-------4---4-----|-------4---4-----|-------3---3-----|
G------6-------6---|-----6-------6---|-----5-------5---|-----4-------4---|
D----7-----------7-|---5-----------5-|---4-----------4-|---3-----------3-|
A--0---------------|-0---------------|-0---------------|-0---------------|
E------------------|-----------------|-----------------|-----------------|


e----------0-------|---------0-------|---------0-------|---------0-------|
B--------2---2-----|-------1---1-----|-----1-----1---1-|-----3-----3---3-|
G------4-------4---|-----4-------4---|---4---4-----4---|---2---2-----2---|
D----2-----------2-|---2-----------2-|-----------------|-----------------|
A--0---------------|-0---------------|-----------------|-----------------|
E------------------|-----------------|-3---------------|-1---------------|


e------------------------0-----|
B------------------0---0-0-0-3-|
G------------1---1---1-------4-|
D------4---4---4---------------|
A----2---2---------------------|
E--0---------------------------|


RIFF A:
e--------------------------------------|---------------------------------|
B--------------------------------------|---------------------------------|
G------5---4-------2---4---5---4---2---|-----5---4---2---4---5---4-------|
D----2---2---2---2---2---2---2---2---2-|---2---2---2---2---2---2---2---2-|
A--0-----------0-----------------------|-0-------------------------------|
E--------------------------------------|-----------------------------0---|
End RIFF A


Play RIFF A twice w/acoustic then once with electric)


Still heavy:
e--------------------------------------|------------------------|
B--------------------------------------|------------------------|
G------5---4-------2---4---5---4---2---|-----5---4---2---4---5--|
D----2---2---2---2---2---2---2---2---2-|---2---2---2---2---2----|
A--0-----------0-----------------------|-0----------------------|
E--------------------------------------|------------------------|


e---------------------|
B---------------------|
G--------------5-\-4--|
D--2---3---4---5-\-4--|
A--2---3---2---3-\-2--|
E--0---1---2----------|
macandkanga  
20 Nov 2008 13:34 | Quote
Joined: 03 Oct 2008
United States
Karma: 21
EMB5490  
20 Nov 2008 15:33 | Quote
Joined: 10 Feb 2008
United States
Lessons: 1
Licks: 1
Karma: 31
woot i love this song, i knew how to play it b4 this but w/e we should a tabs section.
EMB5490  
20 Nov 2008 15:34 | Quote
Joined: 10 Feb 2008
United States
Lessons: 1
Licks: 1
Karma: 31
use the "insert tab" button for tabs.
Empirism  
23 Nov 2008 13:57 | Quote
Joined: 23 Jun 2008
Finland
Lessons: 4
Karma: 35
Cool, nice work m8. That is kinda perfect for finger training :P. Im not sure, but I heard that many of todays metal guitarists keep that album one of best influences on metal playing.
EMB5490  
23 Nov 2008 17:12 | Quote
Joined: 10 Feb 2008
United States
Lessons: 1
Licks: 1
Karma: 31
randy rhoads acctually stole this/borrowed it.
Ozzfan486  
23 Nov 2008 17:13 | Quote
Joined: 01 Oct 2008
United States
Licks: 1
Karma: 18
From whom?
EMB5490  
23 Nov 2008 17:15 | Quote
Joined: 10 Feb 2008
United States
Lessons: 1
Licks: 1
Karma: 31
leo brouwer,



same exact chords, i am a huge randy fan so if any 1 wants to know anything bout him i prob know it.
ironman91313  
23 Nov 2008 20:40 | Quote
Joined: 18 Jun 2008
United States
Karma: 2
@EMB, same here buddy favorite guitarist
EMB5490  
23 Nov 2008 21:42 | Quote
Joined: 10 Feb 2008
United States
Lessons: 1
Licks: 1
Karma: 31
yes.. but i know everything bout him...im a freak fan...id kill to meet him...i happen to think he has one of the greatest minds musically ever. he is a genius. i know personal facts about him, liked his finger nails long, liked skinned chicken, polka dots, bow ties...need i go on? im a huge fan..soooo huge lol.
macandkanga  
24 Nov 2008 00:40 | Quote
Joined: 03 Oct 2008
United States
Karma: 21
That is outstanding. Exact same chords. Cool stuff emb.
EMB5490  
24 Nov 2008 06:54 | Quote
Joined: 10 Feb 2008
United States
Lessons: 1
Licks: 1
Karma: 31
np, btw he also liked pachelbel, c.p.e bach, and cavantina.
soy.el.che  
24 Nov 2008 17:05 | Quote
Joined: way back
Mexico
Lessons: 1
Karma: 9
i personally dont like that piece
ironman91313  
24 Nov 2008 19:16 | Quote
Joined: 18 Jun 2008
United States
Karma: 2
@EMB, i know that stuff too, like he was in the band Quiet Riot with his long time buddy Kelly Garni. When Garni got kicked out Randy quit also. they had a fight and one of Randy's long fingernails fell off. Garni has this fingernail to this day.

Also Garni and Randy had secret messages when they were kids, for example Randy would adress Garni as Kellogg. and the word "bone" had to do with anything about sex. thats where the song "No Bone Movies" came from.
Ozzfan486  
24 Nov 2008 19:23 | Quote
Joined: 01 Oct 2008
United States
Licks: 1
Karma: 18
Haha. Cool. Any other odd facts?
EMB5490  
24 Nov 2008 20:45 | Quote
Joined: 10 Feb 2008
United States
Lessons: 1
Licks: 1
Karma: 31
yes, well stuff that i know, randy had a huge fear of flight which puzzels every randy fan why he flew that plane before he died...he played in other bands like the ***, and violet fox named after his moms middle name, he started at 7, really only played chords, mom then wanted him to take piano lessons, didnt go too well, continued again at 12. got his first electric guitar then the hollow body one. randy didnt leave b/c of garni he left for ozzy, when ozzy hired him, he left quiet riot. garni was shortly replaced by rudy sarzo who also toured with ozzy. bob daisly wrote all the lyrics for ozzy songs. randy leared in his moms music shop then taught private lessons when he was older. anything else or should i make a novel, the rhoads story.
marsdemartini  
28 Nov 2008 20:24 | Quote
Joined: 15 May 2008
United States
Karma: 1
this songs is awesome... so is "you can't kill rock and roll"


Copyright © 2004-2017 All-Guitar-Chords.com. All rights reserved.