new transposer      circle of 5ths    wap


Alternate Ways to Play This Run?

Technique
Kodi666  
9 Nov 2008 12:19 | Quote
Joined: 07 Sep 2008
Canada
Karma

-22-20-19-17-20-19-17-------19-20-19-17-------22/12--
----------------------20-19-------------20-19--------
-----------------------------------------------------
-----------------------------------------------------
-----------------------------------------------------
-----------------------------------------------------


I know you can play (most of) it in 19th position on the first and second strings, but I keep losing track when I'm trying to play an alternate note. Any help would be great. Thanks.
JazzMaverick  
9 Nov 2008 13:10 | Quote
Joined: 28 Aug 2008
United Kingdom
Lessons: 24
Licks: 37
Karma: 47
Moderator
What I strongly encourage you to do, is to learn the notes that you're playing. I'll give you a clue for the first one, on the high string E, fret 22, the note is D.

This will be great practice for you, so please try it out.

By learning what these notes are, you'll then be able to learn how to play it everywhere else on the guitar.
EMB5490  
9 Nov 2008 18:19 | Quote
Joined: 10 Feb 2008
United States
Lessons: 1
Licks: 1
Karma: 31
ye like this, it should be on b phrygian



e--22-20-19----20-19----------19-20-19----------22/12
b-----------22-------22-20-19----------22-20-19-
g--
d--
a--
e--


or play it on a dorian and bend the 20th to the 22.



e--20b22-20-19-17-20-19-17-------19-20-19-17-------20b22/12-
b--------------------------20-19-------------20-19----------
g--
d--
a--
e--


or play it the way u played it the key would be in g maj, which is a dorian, b phrygian, c lydian, d mixolydian, e aeolian, f# locrian. hope this helps.
telecrater  
9 Nov 2008 18:52 | Quote
Joined: 13 Jan 2008
United States
Lessons: 8
Karma: 13
gez, where the hell you been Kodi?
Kodi666  
9 Nov 2008 20:15 | Quote
Joined: 07 Sep 2008
Canada
Karma
Thanks EMB. I like the first way, it has a more comfortable feel to it, imo.

@tele, took some time off. I posted like too much random stuff here back in the days. Plus, there is enough OT stuff here as it is, so I might just drop in every so often.

Take 'er easy.


Copyright © 2004-2017 All-Guitar-Chords.com. All rights reserved.