new transposer      circle of 5ths    wap


any know anything about harmonicas and song keys?

General Chat
hippie_cune  
21 Aug 2006 00:41 | Quote
Joined: way back
Karma: 1
so does any one know anything about harmonicas and the key of a song?

the first few notes of the selection im playing (guitar) are a# f c d d# ..

its the zelda theme song :P
CostacheCaragi  
21 Aug 2006 17:15 | Quote
United Kingdom
Posts: 61
yea! i used to play harmonica, although my knowledge is poor, i think if you get a C diatonic harp, you can play cross harp in lots of other keys as well as just C, i cant remember which ones! but thats a start?
jabedoo  
21 Aug 2006 17:40 | Quote
Joined: way back
United States
Karma
i know nothing about the harmonica except the note e. the tip i can give you is if you can find e on the harmonica by playing e on the guitar and doing that with other notes you could just teach yourself the keys. sorry for lack of info :r
jabedoo  
21 Aug 2006 17:41 | Quote
Joined: way back
United States
Karma
how do you play the zelda theme song??
hippie_cune  
21 Aug 2006 23:42 | Quote
Joined: way back
Karma: 1
hahaha.. would you like me to type out the tab for ya?

---------------------------
--------------------16-18--
-15----15-15-17-19--------- x 3
----15---------------------
---------------------------
---------------------------

-----------16-18--18-18-16---------------
-18-18-19-------------------19-21-19-18--
-----------------------------------------
-----------------------------------------
-----------------------------------------
-----------------------------------------

-----------------------------------------
-18-16-16-18-19--18-16--14-16-18--16-14--
-----------------------------------------
-----------------------------------------
-----------------------------------------
-----------------------------------------

-------------16-13---
-13-13-15-17---------
---------------------
---------------------
---------------------
---------------------

theres a bit more on the second go around, but ill let you guys finger around to find it (you may have to play the game to hear whats goin on)
hippie_cune  
21 Aug 2006 23:43 | Quote
Joined: way back
Karma: 1
guh.. the first and last bars are a lil screwy
Moonlit  
22 Aug 2006 01:52 | Quote
United States
Posts: 85
Heh, similair to Jazz, a lot of game music switches keys often, and uses many chromatic movements.
Moonlit  
22 Aug 2006 01:53 | Quote
United States
Posts: 85
Also, exotic scales are used heavily too.
hippie_cune  
22 Aug 2006 02:01 | Quote
Joined: way back
Karma: 1
hahaha

nintendo themes were one of the things i first started to learn to get my fingers quicker.
jabedoo  
22 Aug 2006 17:38 | Quote
Joined: way back
United States
Karma
well its gr8 that you tabbed it out BUT theres one problem.


MY GUITAR IS NOT CUT AT THE NECK AND ITS NEARLY IMPOSSIBLE TO PLAY WITH MY GUITAR THIS WAY!!!
jabedoo  
22 Aug 2006 17:41 | Quote
Joined: way back
United States
Karma
it wouldve been easier to just give me the chords
hippie_cune  
23 Aug 2006 01:02 | Quote
Joined: way back
Karma: 1
i dunno what chords are used...

but im pretty sure is just a vamp of power chords A#5 G#5 F#5 F5 ... each one 8 times.

like i said the song can be transposed to begin on 8 on the D string.. just remember that the B string will mess up the fingering positions a lil bit.

also jabedoo.. you NEED a guitar cut at the neck.. those top registers are beautiful to work in.


Copyright © 2004-2017 All-Guitar-Chords.com. All rights reserved.