new transposer      circle of 5ths    wap


FIRE!!!! ,,/

General Chat
miro  
8 Jun 2006 07:15 | Quote
Posts: 3
i have simple question ! can we burn up the speakers from heavy solos?do you know any song? or chords maybe... :)))

TO BE THE METAAAAAL ,,/ :p Let see
SVGA  
8 Jun 2006 07:27 | Quote
Posts: 7
try this Limp Bizkit- Break stuff , do like to jam it:

Chorus
|-4-4--x-x-x-------| x3
|-4-4--x-x-x-------|
|-4-4--x-x-x-------|
|-6-6--x-x-x-------|
|-6-6--x-x-x-------|
|-4-4--x-x-x-------|

|-4---3---------| x2
|-4---3---------|
|-4---3---------|
|-6---5---------|
|-6---5---------|
|-4---3---------|

Verse ('til the chorus)

|-4---3---------|
|-4---3---------|
|-4---3---------|
|-6---5---------|
|-6---5---------|
|-4---3---------|

enjoy!


Copyright © 2004-2017 All-Guitar-Chords.com. All rights reserved.