new transposer      circle of 5ths    wap


What do you guys think?

Technique
doxy88  
3 Jun 2008 04:26 | Quote
United Kingdom
Posts: 2
This is an acoustic riff I wrote about two months ago, in 3/4 time.

e----------------------------------------------------------------------------------------------------
b-----------------------------------------10----------------------------------13----13----12----12---
g-9--9--9--9--9--9--9---9---9---12---12--------7--7--7--9--9--9---12----12---------------------------
d--7--7--7--7--7--7--10--10--10---10---10---10--9--9--9--9--9--9----12----12----12----12----12----12-
a0--0--0--0--0--0--8---8---8---8----8----8----7--7--7--7--7--7--10----10----10----10----10----10-----
E----------------------------------------------------------------------------------------------------
doxy88  
3 Jun 2008 04:28 | Quote
United Kingdom
Posts: 2
Okay. it looks awful! if you copy and paste it into the new post box or mote pad it looks fine. what you think?
GuitarBoy666  
3 Jun 2008 04:46 | Quote
Joined: 20 Dec 2007
Canada
Karma: 2
That's why when you are makin the tab you write the whole thing out and at the start put in

then at the end put in


I can't read it though because it is too confusing. I guess because of how it was when it was copied
blackholesun  
3 Jun 2008 04:52 | Quote
Joined: 04 Jan 2007
United Kingdom
Licks: 1
Karma: 11
Moderator
What GuitarBoy666 meant to say was use [*tab] at the start of the tab, and [*/tab] at the end of the tab, but without the *s, I put them in to prevent the computer thinking I wanted to write a tab, which is what happened with GuitarBoy666.

Welcome to the forum.
deefa  
3 Jun 2008 08:04 | Quote
Joined: 22 Dec 2007
United Kingdom
Karma: 8
Test:-


----------------------------------------------
-----------------------------------------------------
----------------------------------------------------

-----------------------------------------------
----------------------------------------------
----------------------------------------------[tab/]

Eureka!!!

And no. My guitar hasn't only got 3 strings!
GuitarBoy666  
3 Jun 2008 13:34 | Quote
Joined: 20 Dec 2007
Canada
Karma: 2
Oh yeah I posted that really quick this morning and didn't double check it cause I hadda go to school. But yeah what bhs said is what I meant.


Copyright © 2004-2017 All-Guitar-Chords.com. All rights reserved.