new transposer      circle of 5ths    wap


Can someone help with my song?

Technique
whistlebug23  
25 May 2008 20:59 | Quote
Joined: 25 May 2008
United States
Karma
I am messing with making a song, and I can't figure out what to do next. I don't know about keys, or arpeggios, so leave that out (if possible).
My song starts out like so:
|--------------3-----------------|
|--------------0-----------------|
|--------------0-----------------|
|--------------0-----------------|
|--------------2-----------------|
|--0--2--3---3---2/3--2--0-------|
/\
hit the G chord ten times in a rythym that I don't want to type.

I'm lost from there. Any help?
GuitarBoy666  
26 May 2008 05:10 | Quote
Joined: 20 Dec 2007
Canada
Karma: 2
Why don't you try playing the G 10x, then play D 8x, then Dsus4 8x, then back to G 3x, 2 scratches, then D again.

IDK, my creativity isn't going yet today. Just got up an hour ago.
Skold  
26 May 2008 08:54 | Quote
Joined: 14 Mar 2008
United States
Karma: 3
A G, D, Em7, Cadd9 progression might sound good.
soy.el.che  
26 May 2008 19:36 | Quote
Joined: way back
Mexico
Lessons: 1
Karma: 9
u could keep on then with a mute chord metal riff and then an amazing ear blasting solo playing at lightspeed like three thousand four hundred ninety nine millions blablabla beats per second... but id rather play somethin like ur intro n then 4 measures of drums (only the sticks) then


-------------------------------------------------------------____x4
----------------------------8b-8--7--5---------------5------/
----------------------------------------7-7--4-4--4h7------/
--2--x--2----7---5--5--2----------------------------------/
--2--x--2----7---5--5--2---------------------------------/
--0--x--0----5---3--3--0-------------------------------_/

im not to good with chords... i hoppe u like it, i suggest to change the lil solo a little each time u repeat
RelaxedDude  
26 May 2008 23:29 | Quote
Joined: 26 May 2008
United States
Licks: 2
Karma: 3
Personally, I love the sounds of a B then an A


Copyright © 2004-2017 All-Guitar-Chords.com. All rights reserved.