new transposer      circle of 5ths    wap


Favorite Riff

General Chat
DarkRiff  
13 May 2008 15:15 | Quote
Joined: 18 Mar 2008
United States
Licks: 2
Karma: 12
Mine is Probably the second one in the Song Black Sabbath the one that goes,



|-------------------------|
|-------------------------|
|-------------------------|
|-------------------------|
|---------3-5-6-3-5---3-5-|
|-3-3-3-6-----------6-----|
Nutter166  
13 May 2008 15:27 | Quote
Joined: 22 Feb 2008
Wales
Licks: 2
Karma: 14
Guitar Wise

Black Sabbath - Iron man


e|------------|----------|-------------|----------|
B|------------|----------|-------------|----------|
G|------------|----------|-------------|----------|
D|-----7--7/9-|-9--1211-|-1211-1211-|-7--7/9-9-|
A|--9--5--5/7-|-7--109--|-109--109--|-5--5/7-7-|
E|--7---------|----------|-------------|----------|


Bass Wise

Dead Kennedys - Moon Over Marin


G|----------|---------|
D|----------|---------|
A|----------|---------|
E|-3h5p4h5p-|-4h5p4h5-|
ThePusher  
13 May 2008 15:35 | Quote
Joined: 19 Jan 2008
Canada
Lessons: 3
Karma: 3
My favorite riff is the opener from Number of The Beast for guitar and the opener of Wrathchild basswise
deefa  
14 May 2008 05:55 | Quote
Joined: 22 Dec 2007
United Kingdom
Karma: 8
Free:"I'll be creepin'"
league  
14 May 2008 13:03 | Quote
Joined: way back
United States
Lessons: 2
Karma: 10
Two of my favorite riffs are the bridge riff from Devils Island by Megadeth and the intro riff to Iron Maiden's Iron Maiden.
EMB5490  
14 May 2008 13:45 | Quote
Joined: 10 Feb 2008
United States
Lessons: 1
Licks: 1
Karma: 31
anything by lynyrd skynyrd
joe  
14 May 2008 14:04 | Quote
Joined: 20 Aug 2007
United Kingdom
Karma: 1
got to be crazy train by ozzy osbourne :)
EMB5490  
14 May 2008 14:38 | Quote
Joined: 10 Feb 2008
United States
Lessons: 1
Licks: 1
Karma: 31
lol, thts a fun one 2 play.

just changed it, over the hills and far away by zep, wins far and away, i mean common, at least best acoustic, and even better....i can play it! just learned 2day.
DarkRiff  
16 May 2008 18:26 | Quote
Joined: 18 Mar 2008
United States
Licks: 2
Karma: 12
any body else?

It would be nice if you guys could post tabs
soy.el.che  
16 May 2008 18:40 | Quote
Joined: way back
Mexico
Lessons: 1
Karma: 9
dunno... theres a lot of cool riffs out there
EMB5490  
16 May 2008 18:49 | Quote
Joined: 10 Feb 2008
United States
Lessons: 1
Licks: 1
Karma: 31
err over the hills and far away is:

at a 120 tempo:



q q e e q e e q
e--------------3-3-3-3-------------------2-2-2-2-
b--------------3-3-3-3-------------------3-3-3-3-
g--0h2p2-----0-0-0-0-0-0h2p0-----4p2p0---2-2-2-2-
d--------4p0---0-0-0-0-------4p0-------0-0-0-0-0-
a--------------2-2-2-2---------------------------
e--------------3-3-3-3---------------------------


thts basicly it. thers more, but its simple.
GuitarBoy666  
16 May 2008 19:04 | Quote
Joined: 20 Dec 2007
Canada
Karma: 2
I am really liking Sum 41's "The Bitter End" right now. There are a few sweet riffs in that song. It's actually kinda metal-ish too.
telecrater  
16 May 2008 19:48 | Quote
Joined: 13 Jan 2008
United States
Lessons: 8
Karma: 13
bass wise it's shake hands with beef by Primus, or anything master lester does rocks on the bass

guitar wise it's Pride and Joy by SRV
marsdemartini  
16 May 2008 22:18 | Quote
Joined: 15 May 2008
United States
Karma: 1
Dream Theater "Dark Eternal Night"
Skold  
16 May 2008 23:22 | Quote
Joined: 14 Mar 2008
United States
Karma: 3
The main riff from "Cigarettes & Alcohol" by Oasis.


Copyright © 2004-2017 All-Guitar-Chords.com. All rights reserved.