new transposer      circle of 5ths    wap



2 neoclassical licks

by BodomBeachTerror
 



e|-19-17-15-------------------17-15-14-------------------15-14-12-------------------15-14-12-11----------------|
B|----------20-19-17-------------------19-17-15-------------------17-15-13----------------------13-12----------|
G|-------------------21-19-17-------------------19-17-16-------------------17-16-14-------------------14-12-9--|
D|-------------------------------------------------------------------------------------------------------------|
A|-------------------------------------------------------------------------------------------------------------|
E|-------------------------------------------------------------------------------------------------------------|



e|-19-17-15----------17-15-14--------------------------------------------------|
B|----------20-19-17----------19-17-15--20-19-17--17-15-14--19-17-15-----------|
G|-------------------------------------------------------------------19-18-16--|
D|-----------------------------------------------------------------------------|
A|-----------------------------------------------------------------------------|
E|-----------------------------------------------------------------------------|


play with alternate picking or legato

contact me if it doesnt sounds right.. cuz then its probly wrong =p

Comments:

Guest access is read-only. To write comment, please login!



Copyright © 2004-2009 All-Guitar-Chords.com. All rights reserved.