new transposer      circle of 5ths    wap



A Riff and Lead Lick

by DarkRiff
 



|--------------------------------------|
|--------------------------------------|
|--------------------------------------|
|-------9------10-------7-------9-10---|
|-------7-------8-------5-------7--8---|
|-0-0-0---0-0-0---0-0-0---0-0-0--------|
|_p.m_| |_p.m_| |_p.m_| |_p.m_|

and this is one of my favorite licks
|-------------------------------|
|----12h15p12----12h15p12h15p12-|
|-14----------14----------------|
|-------------------------------|
|-------------------------------|
|-------------------------------|

Comments:

Guest access is read-only. To write comment, please login!



Copyright © 2004-2009 All-Guitar-Chords.com. All rights reserved.