new transposer      circle of 5ths    wap



Lullaby

by esric

Votes 1 | Rating 1


I made this up so i could play it with my friend as a lovesong he was writing. I also did it in about 30 seconds.


e---------------------------------------------------------
b---------------------------------------------------------
g-----7-4-2-0-2-4-----7-4-2-0-2-------7-4-2-0-2-4-0-------
d-------------------------------2-------------------------
a---5---------------5---------------5---------------------
E-7---------------7---------------7-----------------------


I just threw this part in later. It's basically just part of a penotonic scale repeated over and over again, but its fun


e---------------------------------------------------
b-----------------------------3---------------------
g----0-2-0-2-4-2-0-0-0-2-0-2-4----------------------
d---2-------------2-2-------------------------------
a---------------------------------------------------
E---------------------------------------------------

Comments:

Guest access is read-only. To write comment, please login!



Copyright © 2004-2009 All-Guitar-Chords.com. All rights reserved.