new transposer      circle of 5ths    wap



Classical Endevours

by Guitarslinger124

Votes 2 | Rating 3.5


This lick is pretty simple, although beware of the rests! This is a three part harmony, I used a string and brass section plus percussion, but guitars will work equally well.

The tempo is 180 and like I said, the actually licks are simple, but the timing is key. Also, I added no resolution so use your imagination and finish this thing up.

The Key is C Major.



#----------------------------------PLEASE NOTE---------------------------------#
#This file is the author's own work and represents their interpretation of the #
#song. You may only use this file for private study, scholarship, or research. #
#------------------------------------------------------------------------------#









Gtr I (E A D G B E) - 'Strings 1'
Gtr II (E A D G B E) - 'Strings 2'
Gtr III (E A D G B E) - 'Tremelo Strings'
Gtr IV (E A D G B E) - 'Pizzicato Strings'
Gtr V (E A D G B E) - 'Orchestral Strings'
Gtr VI (E A D G B E) - 'Timpani'

Q=180
4/4
Gtrs I, II, III, IV, V
q E q H q E q H
|--------------------------------------|
|--------------------------------------|
|-4-----5-----------9-----10-----------|
|-2-----3-----------9-----10-----------|
|-2-----3-----------7------7-----------|
|-0-----0-----------0------0-----------|
|
| Gtr VI
| E E E E E E E E E E E E E E E E E E
|--------------------------------------|
|--------------------------------------|
|--------------------------------------|
|--------------------------------------|
|-2-----------------2------------------|
|-0-0-1-3-5-0-1-3-5-0-0-1--3-5-0-1-3-5-|


Gtrs II, III, IV, V
q E q H q E q H
|---------------------------------------|
|---------------------------------------|
|-4------5-----------9-----10-----------|
|-2------3-----------9-----10-----------|
|-2------3-----------7------7-----------|
|-0------0-----------0------0-----------|
|
| Gtr VI
| E E E E E E E E E E E E E E E E E E
|---------------------------------------|
|---------------------------------------|
|---------------------------------------|
|-2------------------2------------------|
|-0------------------0------------------|
|-0-1-3--5-7-1-3-5-7-0-1-3--5-7-1-3-5-7-|
|
| Gtr I
| q E q H q E q H
|-7------8-----------1------5-----------|
|-8-----10-----------3------6-----------|
|-9-----10-----------4------7-----------|
|---------------------------------------|
|---------------------------------------|
|---------------------------------------|


Gtr VI
S S S E E Q S S S E E Q S S S E E Q S S S E E W
|-------------------------------------------------------------------------|
|-------------------------------------------------------------------------|
|-------------------------------------------------------------------------|
|-------------------------------------------------------------------------|
|-------------------------------------------------------------------------|
|--0--1-3-5-7-8--10-12-13-15-17-19--20-22-24-24-24-22--20-19-17-15-13-12--|
|
| Gtrs II, IV, V
| S S S E E q S S S E E q S S S E E q S S S E E w
|-------------------------------------------------------------------------|
|-------------------------------------------------------------------------|
|-------------------------------------------------------------------------|
|-------------0------------------2------------------3------------------5--|
|-------------2------------------3------------------5------------------7--|
|-------------3------------------5------------------7------------------8--|
|
| Gtrs I, III
| s s s e e q s s s e e q s s s e e q s s s e e w
|-12-10-8-7-5-3---1--0----------------------------------------------------|
|-------------3---------3--1--0-------------------------------------------|
|-------------4------------------5---4--2--0---------------------------7--|
|--------------------------------7------------3--2--0------------------7--|
|--------------------------------8------------------2------------------8--|
|---------------------------------------------------3---5--7--8-10-12-----|


Gtrs II, IV, V
S S E E Q S S E E Q S S E E Q
|---------------------------8-10----|
|-----------------------6-8---------|
|----------------4-5----------------|
|------------3-5--------------------|
|-----3-5---------------------------|
|-1-3-------------------------------|
|
| Gtrs I, III
| S S E E Q S S E E Q S S E E Q
|---------------------------7--8----|
|-----------------------5-6---------|
|----------------2-4----------------|
|------------2-3--------------------|
|-----2-3---------------------------|
|-0-1-------------------------------|
|
| Gtr VI
| S S E E Q S S E E Q S S E E Q
|---------------------------7--8----|
|-----------------------5-6---------|
|----------------2-4----------------|
|------------2-3--------------------|
|-----2-3---------------------------|
|-0-1-------------------------------|


Gtrs I, III
E E S S Q E E S S Q E E S S Q E E S S Q
|-------------------7-----7-----------------------------|
|---------------5-6---------8---------------------------|
|-------------4---------------9---------------7---------|
|-------3-----------------------10----------9-----------|
|-----2----------------------------------10-------------|
|-0-1---------------------------------10----------------|
|
| Gtrs II, IV, V
| Q E q Q E q Q E q Q E S S S S
|-------------------------------------------------------|
|-------------------------------------------------------|
|-----------------------------------------------------2-|
|----------9-----------7-----------5----------------3---|
|---------10-----------8-----------7--------------5-----|
|---------12----------10-----------8------------7-------|
|
| Gtr VI
| Q E Q Q E Q Q E Q Q E Q
|-0--------0--0--------0--0--------0---0--------0-------|
|-------------------------------------------------------|
|-------------------------------------------------------|
|----------2-----------2-----------2--------------------|
|-0-----------0-----------0------------0--------0-------|
|-0--------0--0--------0--0--------0---0--------0-------|


Gtr VI
S S S E E S S S E E S S S E E S S S E E
|-----------------------------------------------------------|
|-----------------------------------------------------------|
|-----------------------------------------------------------|
|-----------------------------------------------------------|
|-----------------------------------------------------------|
|-24-24-24-22-22-20-20-20-19-19-17-17-17-15-15-13-12-10-8-7-|
|
|-----------------------------------------------------------|
|-----------------------------------------------------------|
|-----------------------------------------------------------|
|-----------------------------------------------------------|
|-----------------------------------------------------------|
|-----------------------------------------------------------|
|
|-----------------------------------------------------------|
|-----------------------------------------------------------|
|-----------------------------------------------------------|
|-----------------------------------------------------------|
|-----------------------------------------------------------|
|-----------------------------------------------------------|


e. H Q Q H H H Q Q W
|----------------------------------------------|
|----------------------------------------------|
|----------------------------------------------|
|----------------------------------------------|
|----------------------------------------------|
|-5-------5---5---7--------------5---5----7----|
|
| Gtrs II, IV, V
| E. H q q H H H q q W
|----------------------------------------------|
|----------------------------------------------|
|----0----2-------2----2----4----4--------7----|
|----2--------3---3----3----5--------5----9----|
|----3------------5----5----7------------10----|
|----------------------------------------------|
|
| Gtrs I, III
| E. H E e e e H H H E E E E W
|----------------------------------------------|
|----------------------------------------------|
|-----------------------------------------5----|
|----0------0-----2----3----5------5------7----|
|----2--------2---3----5----7--------7----8----|
|----3----------3-5----7----8----------8-10----|



Duration Legend
---------------
W - whole; H - half; Q - quarter; E - 8th; S - 16th; T - 32nd; X - 64th; a - acciaccatura
+ - note tied to previous; . - note dotted; .. - note double dotted
Uncapitalized letters represent notes that are staccato (1/2 duration)
Irregular groupings are notated above the duration line
Duration letters will always appear directly above the note/fret number it represents the
duration for. Duration letters with no fret number below them represent rests. Multi-
bar rests are notated in the form Wxn, where n is the number of bars to rest for. Low
melody durations appear below the staff

Tablature Legend
----------------
h - hammer-on
p - pull-off
b - bend
pb - pre-bend
r - bend release (if no number after the r, then release immediately)
/\ - slide into or out of (from/to "nowhere")
s - legato slide
S - shift slide
- natural harmonic
[n] - artificial harmonic
n(n) - tapped harmonic
~ - vibrato
tr - trill
T - tap
TP - trem. picking
PM - palm muting
\n/ - tremolo bar dip; n = amount to dip
\n - tremolo bar down
n/ - tremolo bar up
/n\ - tremolo bar inverted dip
= - hold bend; also acts as connecting device for hammers/pulls
<> - volume swell (louder/softer)
x - on rhythm slash represents muted slash
o - on rhythm slash represents single note slash


Comments:

01
06.22.2013
  MoshZilla1016

It took me a little while to figure out the parts but other than that I really like this one. Good lick.

Guest access is read-only. To write comment, please login!



Copyright © 2004-2009 All-Guitar-Chords.com. All rights reserved.