new transposer      circle of 5ths    wap



Symphony of Bells

by Guitarslinger124

Votes 3 | Rating 5


Here is my song Symphony of Bells. Learn it and you can have it. Enjoy.



Gtr I (E A D G B E) - 'Untitled'

Q=150
4/4
Gtr I
PM--| PM PM| PM PM| TP TP TPTPTPTPTPTPTPTPTPTP TP ~~
E E E E E E E E E E E E E E E E E E E E E E E E E E E E E E E E
|--------------------------------------------------------------------|
|--------------------------------------------------------------------|
|--------------------------------------------------------------------|
|--------------------------------------------------------------------|
|-----------2---------2-------------------------2--------------------|
|-0-0-0-2-0---5-3-2-0---5-3-2-0-3-0-5-0-0-2-0-0---5-3-2-0-3-0-5s12---|


TP TP TPTPTPTPTPTPTPTPTPTP TP TPTPTP
E E E E E E E E E E E E E E E E E E E E E E E E E E E E E E E E E E Q
|-----------------------------------------------------------------------|
|-----------------------------------------------------------------------|
|-----------------------------------------------------------------------|
|-----------------------------------------------------------------------|
|-----------2---------2-------------------------2-----------------------|
|-0-0-0-2-0---5-3-2-0---5-3-2-0-3-0-5-0-0-2-0-0---5-3-2-0-3-0-5-0-0-0---|


TPTPTP TP TP TPTP TP
E E E E E E E E E E E E E E E E E E E E E E E E E E E E E E E E E E
|---------------------------------------------------------------------------|
|---------------------------------------------------------------------------|
|---------------------------------------------------------------------------|
|--------------------------------------------------------------2\-3---------|
|--------------------2------------------------------2----------2\-3---------|
|-0-0-0-5b7--2h3p2h5---5\-3-0-0-0-2-0-0-0-3-2h3p2h5---5\-3-0-0-0\-0-0-0-3h5-|

TPTP TPTPTP TPTP TP
E E E E E E E E E E E E E E E E E E E E E E E E E E E E E E
|------------------------------------------------------------------------------------
|------------------------------------------------------------------------------------
|------------------------------------------5\-7---7\--9-----5\-7\--9---9-10----------
|-----3\-2---------------------------------7\-9---9\-10-----7\-9\--10------12---9-10-
|-----3\-2-------------------------------0------0-------0-0-----------0-------0------
|-0-0-0\-0-0-0-0-0-7tr8-7tr8-7tr8-7tr8-0---------------------------------------------
TP TPTPTP
E E E E E
|----------|
|----------|
|12--------|
|----------|
|----2-2-2-|
|----0-0-0-|

TP TP TPTP TP TP T TPTPTPTPTPTPTPTPTPTP
E E E E E E E E E E E E E E E E E E E E E E E E E E E E E E E E E E E
|---12-13------------15---------12-13------------15---7------------------------------
|---------15---12-13------------------15---12-13----8---8----------------------------
|----9-10------------12----------9-10------------12-------9--------------------------
|---------12-2--9-10------------------12-2--9-10----5---5-7-10-12--------------------
|-2----------0----------2-2-2-2----------0------------2------8----7-8-7-8-5-8-7-8-7-5
|-0---------------------0-0-0-0------------------------------0----0-0-0-0-0-0-0-0-0-0

TPTPTPTPTPTPTPTPTPTPTP TP TPTP TP TPTP
E E E E E E E E E E E E E E E E E E E E E E E E E E E E
|------------------------------------------------------------------------------------
|------------------------------------------------------------------------------------
|----------------------------5tr7---------7tr9------------------5tr7-7tr9-----5\-7---
|-----------------------7tr9--------9tr10----------7tr9-9tr10-----------------7
|-7-8-7-8-5-8-7-8-7-5--------------------------------------------------------------0-
|-0-0-0-0-0-0-0-0-0-0-0-----------0------------0-0------------0-----------0-0--------

TPTP TPTP
E E E E E E E
|-----------------|
|-----------------|
|--5\-7\--9-------|
|\-9-----7\-9\-10-|
|0----------2---2-|
|-----------0-0-0-|

TP TP TPTP TP TPTP TPTP
E E E E E E E E E E E E E E E E E E E E E E E
|------------------------------------------------------------------------------------
|------------------------------------------------------------------------------------
|--------5tr7---------7tr9-----5tr7-7tr9--------------------------------5tr7-5tr7----
|---7tr9--------9tr10----------------------7tr9-9tr10-----7tr9-7tr9------------------
|-------------------------------------------------------------------0-0-----------0-0
|-0-----------0------------0-0-----------0------------0-0----------------------------

TPTP TP TPTPTP
E E E E E E E E E E E E
|---------------------------------------------|
|---------------------------------------------|
|--------------------5tr7-5tr9-7tr9-----------|
|-7tr9-7tr10-9tr10----------------------------|
|------------------0--------------------2-3---|
|-----------------------------------0-0-0-0-0-|

TPTPTP TPTPTP TPTP TPTP
E E E E E E E E E E E E E E E E E E E E E E E E E ETP
|------------------------------------------------------------------------------------
|------------------------------------------------------------------------------------
|-5tr7----------------7tr9--------------------------5tr7---------------7tr9-9tr10-10t
|------7tr9----------------9tr10-----------7tr9--------------9tr10-------------------
|---------------2-3----------------2-3-2---------------------------------------------
|-----------0-0-0-0-0------------0-0-0-0-0------0-0------0-0-------0-0---------------

TP TPTPTP
E E E E E E E E
|------------------------------------|
|------------------------------------|
|r12--7tr9-5tr7----------------------|
|---------------5tr7-----------------|
|--------------------5tr7----------2-|
|-------------------------5tr7-0-0-0-|

TPTPTP TPTPTP TPTPTPTPTPTPTP TPTPTP TPTPTP TPTPTPTPTPTPTPTPTPTP
E E E E E E E E E E E E E E E E E E E E E E E E E E E E E E E E E E E
|-----------------------------------------------------------------------|
|-----------------------------------------------------------------------|
|-----------------------------------------------------------------------|
|-----------------------------------------------------------------------|
|-----2-3-----3-2---2-3-2-5-3-2-3-----2-3-----3-2---2-3-2-5-3-2-3-2-3-2-|
|-0-0-0-0-0-0-0-0-0-0-0-0-0-0-0-0-0-0-0-0-0-0-0-0-0-0-0-0-0-0-0-0-0-0-0-|


TPTPTPTPTPTPTP TP TPTPTPTPTPTPTPTPTPTPTPTPTPTP TPTPTP TPTPTPTPTPTPTPTPTP
E E E E E E E E E E E E E E E E E E E E E E E E E E E E E E E E E E E
|------------------------------------------------------0-------------------|
|------------------------------------------------------0-------------------|
|------------------------------------------------------0---------------7-5-|
|------------------------------------------------------2-----------7-5-----|
|-3-5-3-2-3-2-5-15-15-7-8-7-8-5-8-7-8-7-5-7-8-7-10-----2-------7-5---------|
|-0-0-0-0-0-0-0-12-12-0-0-0-0-0-0-0-0-0-0-0-0-0--0-0-0-0-0-7-5-------------|


TPTP TP TP TPTPTPTPTPTPTPTP TPTPTP TPTP TPTP TPTPTPTP
E E E E E E E E E E E E Q E E E E E E E E E E E E E E E E E E E
|------------------------------------------------------------------------------------
|------------------------------------------------------------------------------------
|-9-7-12-10-10-9-9-7-5-------------------------------------------------------10-9tr10
|----------------------7--------------10-9tr10-----9-7tr9-----7-5tr7-----------------
|------------------------8-----------------------------------------------------------
|--------------------------5----5-5-5----------3-3--------2-2--------0-0-5-5---------

TPTP
E E
|-----|
|-----|
|-----|
|-----|
|-----|
|-3-3-|


TPTP TPTP
E E E E E E E E E E E E E E E E E E E E E E E E
|------------------------------------------------------------------------------------
|------------------------------------------------------------------------------------
|-9-7tr9-----7-5tr7-----------------------------------10-9tr10-9-7tr9-7-5tr7---------
|-----------------------10-9tr10-9-7tr9-7-5tr7-------------------------------3-2tr3--
|----------------------------------------------3-2tr3-------------------------------3
|--------2-2--------0-0--------------------------------------------------------------
TPTP ~ TPTP TPTP
E E E E E Q E E Q E E
|---------0-----0-----|
|---------0-----0-----|
|---------0-----1-----|
|---------2-----3-----|
|---------2-----3-----|
|-5-0-0-0-0-0-0-0-0-0-|



TPTP TPTP TPTP TPTP TPTPTPTP TPTPTPTPTPTPTP
E E E E E E E E E E E E E E E E E E E E E E E E E E W E E E E E E E
|-----------------------------0-0-----0-0-------------0----------------|
|-0-0-------------------------0-0-----0-0-------------0----------------|
|-0-1-----0-1-4-------1-4-----4-4-----1-1-------------0----------------|
|-2-3-----2-3-5-----2-3-5-----5-5-----3-3-------------2----------------|
|-2-3-----2-3-5-----2-3-5-----5-5-----3-3-------------2----------------|
|-0-0-0-0-0-0-0-0-0-------0-0-2-3-0-0-2-0-0-0-0-0-0-0-0--0-0-0-0-0-0-0-|



TP TP TPTPTPTPTPTPTPTP TP TPTPTPTPTPTPTPTP TP TPTPTPTPTPTPTPTP TPTPTPTPTPTPTP
E E E E E E E E E E E E E E E E E E E E E E E E E E E E E E E E E E E
|------------------------------------------------------------------------------------
|------------------------------------------------------------------------------------
|------------------------------------------------------------------2-------2tr4-4-5-2
|------------------------------------------2-------2tr3-3tr5-2h3h5---5-3-2-----------
|------------------2-------2tr3-3tr5-2h3h5---5-3-2-----------------------------------
|-1tr3-3tr5-21p3h5---5-3-2-----------------------------------------------------------


|---------|
|-----3---|
|h4h5---7-|
|---------|
|---------|
|---------|

TPTPTPTPTPTPTPTP TPTP TPTP TP TPTP TP TP TP TP TP TP TP TP TP TP TP TP
E E E E E E E E E E E E E E E E E E E E E E E E E E E
|-----------5-8-7tr8-7h8h10----------------------------------------------------------
|-----5-6h8-----------------8h10h12--------------------------------------------------
|-5-4-------------------------------9h10h12------------------------------------------
|-------------------------------------------10h12h14---------------------------------
|----------------------------------------------------12h14h15------------------------
|-------------------------------------------------------------13tr15--14tr17--13-15-1

TP TP TP TP TP TP
E E E E E E
|-----------------|
|-----------------|
|-----------------|
|-----------14-15-|
|--14-15-17-------|
|7----------------|



TP TP TP TP TP TP TP
E E E E E E E W W
|-------------------------------5----|
|------------------------------10----|
|----14-16-17-14tr16--14-17-13-14----|
|-17----------------------------7----|
|-------------------------------0----|
|-------------------------------5----|

Duration Legend
---------------
W - whole; H - half; Q - quarter; E - 8th; S - 16th; T - 32nd; X - 64th; a - acciaccatura
+ - note tied to previous; . - note dotted; .. - note double dotted
Uncapitalized letters represent notes that are staccato (1/2 duration)
Irregular groupings are notated above the duration line
Duration letters will always appear directly above the note/fret number it represents the
duration for. Duration letters with no fret number below them represent rests. Multi-
bar rests are notated in the form Wxn, where n is the number of bars to rest for. Low
melody durations appear below the staff

Tablature Legend
----------------
h - hammer-on
p - pull-off
b - bend
pb - pre-bend
r - bend release (if no number after the r, then release immediately)
/\ - slide into or out of (from/to "nowhere")
s - legato slide
S - shift slide
- natural harmonic
[n] - artificial harmonic
n(n) - tapped harmonic
~ - vibrato
tr - trill
T - tap
TP - trem. picking
PM - palm muting
\n/ - tremolo bar dip; n = amount to dip
\n - tremolo bar down
n/ - tremolo bar up
/n\ - tremolo bar inverted dip
= - hold bend; also acts as connecting device for hammers/pulls
<> - volume swell (louder/softer)
x - on rhythm slash represents muted slash
o - on rhythm slash represents single note slash


Comments:

02
12.12.2013
  MetalLick

Nice rhythm and simple melody = great song!

Guest access is read-only. To write comment, please login!



Copyright © 2004-2009 All-Guitar-Chords.com. All rights reserved.