new transposer      circle of 5ths    wap



Intro to Fight Scene

by Guitarslinger124

Votes 1 | Rating 4


So this is my latest creation. Since I don't have my guitars with me, I downloaded the midi program, Power Tab to at least get some ideas out of my head. If you want the setup software just pm me and I'll email it to you.


The time is everything in this ditti, so listen closely to MIDI file and study the timing notation above each note. There is no fancy technique, just simple up-down economy picking, so really if you can nail the timing, it's all yours. Enjoy!




Gtr I (E A D G B E) - Guitar 1
Gtr II (E A D G B E) - Bass
Gtr III (E A D G B E) - Guitar 2

4/4
Gtr I
Q S S S S E E Q Q E Q S S S S E E Q Q E
|-------------------------------------------------|
|-------------------------------------------------|
|-------------------------------------------------|
|----------------3-----------------------3--------|
|----2-3-0---0---3-----------2-3-0---0---1--------|
|-0--------0---0-1--0---0-0--------0---0-1--0---0-|
|
| Gtr II
| Q E Q E Q E Q Q E Q E Q E Q
|-------------------------------------------------|
|-------------------------------------------------|
|-------------------------------------------------|
|-------------------------------------------------|
|-------------------------------------------------|
|-0--0---0-----0-0--0-0---0--0---0-----0-0--0-0---|


Gtr I
Q S S S S E E Q Q E Q S S S S E E Q Q E
|-------------------|--------------------|------------|
|-------------------|--------------------|------------|
|-------------------|--------------------|------------|
|----------------3--|--------------------|---3--------|
|----2-3-0---0---3--|----------2-3-0---0-|---1--------|
|-0--------0---0-1--|-0---0-0--------0---|-0-1--0---0-|
|
| Gtr II
| Q E Q E Q E Q Q E Q E Q E Q
|-------------------|--------------------|------------|
|-------------------|--------------------|------------|
|-------------------|--------------------|------------|
|-------------------|--------------------|------------|
|-------------------|--------------------|------------|
|-0--0---0-----0-0--|-0-0---0--0---0-----|-0-0--0-0---|


Gtr I
Q S S S S E E Q Q E Q S S S S E E Q Q E
|----------------------------------------------------|
|----------------------------------------------------|
|----------------------------------------------------|
|-----------------3------------------------3---------|
|-----2-3-0---0---3------------2-3-0---0---1---------|
|-0---------0---0-1---0---0-0--------0---0-1---0---0-|
|
| Gtr II
| Q E Q E Q E Q Q E Q E Q E Q
|----------------------------------------------------|
|----------------------------------------------------|
|----------------------------------------------------|
|----------------------------------------------------|
|----------------------------------------------------|
|-0---0---0-----0-0---0-0---0--0---0-----0-0---0-0---|
|
| Gtr III
| E E E E E E E E E H E E E E E E E E E
|----------------------------------------------------|
|----------------------------------------------------|
|-----4---------5----------------------4-----5-------|
|---5---------7-------2------------5-------7-------2-|
|-7-------8---------3----------7---------8-------3---|
|-----------------5----------------------------5-----|


Gtr I
Q S S S S E E Q Q E Q S S S S E E Q Q E
|----------------------------------------------------|
|----------------------------------------------------|
|----------------------------------------------------|
|-----------------3------------------------3---------|
|-----2-3-0---0---3------------2-3-0---0---1---------|
|-0---------0---0-1---3---3-3--------0---0-1---5---5-|
|
| Gtr II
| Q E Q E Q E Q Q E Q E Q E Q
|----------------------------------------------------|
|----------------------------------------------------|
|----------------------------------------------------|
|----------------------------------------------------|
|----------------------------------------------------|
|-0---0---0-----0-0---0-0---0--0---0-----0-0---0-0---|
|
| Gtr III
| E E E E E E E E E H E E E E E E E E E
|----------------------------------------------------|
|----------------------------------------------------|
|-----4---------5----------------------4-----5-------|
|---5---------7-------2------------5-------7-------2-|
|-7-------8---------3----------7---------8-------3---|
|-----------------5----------------------------5-----|


Gtr I
E E E E E E E E E E E E E E E E E E E E
|-----------------------------------------------------|
|---8---10---12---10---8---10---12---10---8-10-12-----|
|-9---9----9----9----9---9----9----9----9-------------|
|-----------------------------------------------------|
|-----------------------------------------------------|
|-----------------------------------------------------|
|
| Gtr II
| Q E Q E Q E Q Q E Q E Q E Q
|-----------------------------------------------------|
|-----------------------------------------------------|
|-----------------------------------------------------|
|-----------------------------------------------------|
|-----------------------------------------------------|
|-0---0--0----0-0----0-0----0----0-0----0-0-----0-0---|
|
| Gtr III
| E E E E E E E E E H E E E E E E E E E
|-----------------------------------------------------|
|-----------------------------------------------------|
|-----4-------5-----------------------4------5--------|
|---5------7---------2-------------5------7---------2-|
|-7------8---------3-------------7------8---------3---|
|---------------5-------------------------------5-----|


Gtr I
E E E E E E E E E H E E E E E E E
|--------------------------------------------------|
|---8---10---12---10---------12---10---12-8-10-----|
|-9---9----9----9----9----------9----9-------------|
|--------------------------------------------------|
|--------------------------------------------------|
|--------------------------------------------------|
|
| Gtr II
| Q E Q E Q E Q Q E Q E Q E Q
|--------------------------------------------------|
|--------------------------------------------------|
|--------------------------------------------------|
|--------------------------------------------------|
|--------------------------------------------------|
|-0---3--3----0-0----5-5--0---3-3----0--0----5-0---|
|
| Gtr III
| E E E E E E E E E H E E E E E E E E W
|--------------------------------------------------|
|--------------------------------------------------|
|-----4-------5--------------------4------5--------|
|---5------7---------2----------5-------7--------2-|
|-7------8---------3----------7------8---------3---|
|---------------5----------------------------5---0-|


Gtr I
Q S S S S E E Q Q E Q S S S S E E Q Q W
|-------------------------------------------------|
|-------------------------------------------------|
|-------------------------------------------------|
|----------------3-----------------------3--------|
|----2-3-0---0---3------0----2-3-0---0---1--------|
|-0--------0---0-1--0-----0--------0---0-1--0---0-|
|
| Gtr II
| Q E Q E Q E Q Q E Q E Q E W
|-------------------------------------------------|
|-------------------------------------------------|
|-------------------------------------------------|
|-------------------------------------------------|
|-------------------------------------------------|
|-0--3---3-----0-0--5-5---0--3---3-----0-0--5-0---|



Duration Legend
---------------
W - whole; H - half; Q - quarter; E - 8th; S - 16th; T - 32nd; X - 64th;







Comments:

01
04.02.2012
  MoshZilla1016

Cool man. My only problem is would this sound better on guitar or a dark sounding keyboard???

Guest access is read-only. To write comment, please login!



Copyright © 2004-2009 All-Guitar-Chords.com. All rights reserved.