new transposer      circle of 5ths    wap



Rock-blues in Gm7

by houten95
 

Rock-Blues in Gm7

e = eight note




e e e e e e e e e e e e e e e e e e e e e e e e e e e
E|--------6--|--3------3------------|----------------------|----------------------|
B|--3--6-----|----6--3----6-----3---|----------------------|----------------------|
G|-----------|---------------6----2-|-5------3-------------|----------------------|
D|-----------|----------------------|---5--3---5------3----|--------------5--3----|
A|-----------|----------------------|------------5--3------|-6---------5--------3-|
E|-----------|----------------------|----------------------|---5--3-6-------------|

e e e e e e e e e e H+
E|-----------------------|-----6--3~~~~---
B|---------------6--3----|--6-------------
G|---5--3-----5--------2-|----------------
D|-5-------3-------------|----------------
A|-----------------------|----------------
E|-----------------------|----------------


Comments:

Guest access is read-only. To write comment, please login!



Copyright © 2004-2009 All-Guitar-Chords.com. All rights reserved.