new transposer      circle of 5ths    wap



Scratch&Sniff Lick in B Minor

by Zolume
 

Just a lil something I cooked up. Fast paced lick I add to the end of some improvs using the all mighty Minor scale. I hope you enjoy. -Z *Couldn't upload Mp3, so added link like MoshZilla*

x=chop/scratch
^= bend whole note


e-------------------------------------------------
B-----------------------------------------7-x-10--
G-9-x-x-7h9p7----------7-x-9---9h11-9-7h9---------
D-------------9-7h9-------------------------------
A-------------------------------------------------
E-------------------------------------------------

e-------------------------------------------------
B-7h10p7----10^-7---------------------------------
G--------9---------9^-7--6h7-6-x-4--4h6-4---------
D-----------------------------------------/9-x-x--
A-------------------------------------------------
E-------------------------------------------------

e-------------------------------------------------
B-----7---------------7---------------------------
G-7h9---x-9-7h9p7-----7---------------------------
D------------------9--9---------------------------
A---------------------9---------------------------
E-------------------------------------------------


http://www.4shared.com/mp3/p9U50QiC/BMINOR.html

Comments:

Guest access is read-only. To write comment, please login!



Copyright © 2004-2009 All-Guitar-Chords.com. All rights reserved.