new transposer      circle of 5ths    wap



Metal Riff

by Walkwithme

Votes 1 | Rating 4


Hey guys this is just a small metal riff from Am to G to F to Em



(/) Slide Up (\) Slide Down (h) Hammer On (p) Pull Off (b) Bend (r) Release (v) Vibrato


E|--------------------------------------------------
B|--------------------------------------------------
G|--------------------------------------------------
D|--------------------------------------------------
A|--------------------------------------------------
E|--5--5--8--5--5--8--5--5--7--5--5--8--5--5--8--7--



E|--------------------------------------------------
B|--------------------------------------------------
G|--------------------------------------------------
D|--------------------------------------------------
A|--------------------------------------------------
E|--3--3--7--3--3--7--3--3--7--3--3--7--3--3--7--3--



E|--------------------------------------------------
B|--------------------------------------------------
G|--------------------------------------------------
D|--------------------------------------------------
A|--------------------------------------------------
E|--1--1--5--1--1--5--1--1--5--1--1--3--1--1--5--3--



E|--------------------------------------------------
B|--------------------------------------------------
G|--------------------------------------------------
D|--------------------------------------------------
A|--------------------------------------------------
E|--0--0--3--0--0--3--0--0--5--0--0--3--0--0--5--7--

Comments:

01
03.12.2012
  erik1suban

good for start..

Guest access is read-only. To write comment, please login!



Copyright © 2004-2009 All-Guitar-Chords.com. All rights reserved.