new transposer      circle of 5ths    wap



Am chord form, darkish

by Nutter166
 

Well I came up with this for my mate to practice improvising lead over. To us it sounds like a sort of dark/spooky pattern.

Use your thumb, index & middle fingers to pick the intro, I also use my fingers to strum the chord.


E|----------------------------|-----------------------------|
B|-----1-----1----1----1----1-|-----5-----5-----5----5----5-|
G|---2-----2----2----2----2---|---6-----6-----6----6----6---|
D|-2-----2----2----2----2-----|-6-----6-----6----6----6-----|
A|----------------------------|-----------------------------|
E|----------------------------|-----------------------------|

E|----------------------------|-----------------------------|
B|--1--1--1--1--5--5--5--5--5-|-3--3--3--3--3--7--7--7--7--7|
G|--2--2--2--2--6--6--6--6--6-|-4--4--4--4--4--8--8--8--8--8|
D|--2--2--2--2--6--6--6--6--6-|-4--4--4--4--4--8--8--8--8--8|
A|----------------------------|-----------------------------|
E|----------------------------|-----------------------------|

E|----------------------------|-----------------------------|
B|--1--1--1--1--5--5--5--5--5-|-7--7--7--7--7--3--3--3--3--3|
G|--2--2--2--2--6--6--6--6--6-|-8--8--8--8--8--4--4--4--4--4|
D|--2--2--2--2--6--6--6--6--6-|-8--8--8--8--8--4--4--4--4--4|
A|----------------------------|-----------------------------|
E|----------------------------|-----------------------------|


Tips and comments would be greatly appreciated.

Comments:

01
05.19.2008
  WickedBeast

pretty good man

02
01.02.2009
  Apolloshredder

pretty cool man it would be sweet with an arpeggio added into the intro somewhere!

Guest access is read-only. To write comment, please login!



Copyright © 2004-2009 All-Guitar-Chords.com. All rights reserved.