new transposer      circle of 5ths    wap



Medieval Lick

by knocKOut

Votes 3 | Rating 4.33




E-------------------------------13------------17-----------|
B--------------------15------------15----15------14--------|
G---------14----14----14--------------14------------15-14--|
D-----15----15------------15-------------------------------|
A-17-------------------------------------------------------|
D----------------------------------------------------------|

E----------------------------13-------------12-------------| REPEAT FIRST TIME
B-------------------15----------15-----15------14----------|
G-------14-----14-----14------------14--------------15-14--|
D----15----15-----------15---------------------------------|
A-17-------------------------------------------------------|
D----------------------------------------------------------|

E-------------------------18-17-13----------------------------| REPEAT SECOND
B----------------15----------------17-14----15----------------|
G-------14----14----14-------------------15----14-15----------|
D----15----15----------15----------------------------15----14-|
A-17----------------------------------------------------13----|
D-------------------------------------------------------------|

Comments:

01
09.20.2011
  knocKOut

my first tab. sry it's sloppy i'll figure that out eventually.

02
09.22.2011
  GeneralDisdain

its perfectly readable. don't worry about it.

really like the lick!

03
09.22.2011
  GeneralDisdain

A Dm works well at the end.

04
09.25.2011
  Guitarslinger124

Fixed :)

05
09.26.2011
  gshredder2112

Cool lick,tasty.

06
10.09.2011
  knocKOut

HEY YAAALL. Hey i made some changes to the riff. See wut u think..

07
12.28.2011
  Gapping

nice

08
09.20.2012
  niiceguy12

Very cool and catchy.

Guest access is read-only. To write comment, please login!



Copyright © 2004-2009 All-Guitar-Chords.com. All rights reserved.