new transposer      circle of 5ths    wap



my stab at "jazz"

by JointChiefOfFunk
 

if i only could upload some audio - but anyway try and get the rhythm of this. play it at a pretty slow tempo, with that kind of "jazzy drag".


------------------------------------------------
--4s-6s-7---9s-7--6-7-6-4-----------------------
----------------------------3s--6---3-----------
--1s-3s-4---6s-4--3-4-3-1-----------------------
----------------------------1s--4---1------------
------------------------------------------------


-------------7p6---------------------------------
-----------7-----7p6---6----4--------------------
---------8-------------5----4--------------------
-5h6-s9----------------4----4---------------------
-------------------------------------------------
-------------------------------------------------


h - hammer ons
p - pull offs
s - slides

again i wish i could add the audio, but i can't so no use crying about it. this is just something jazzy that i always kind of fool around with

Comments:

Guest access is read-only. To write comment, please login!



Copyright © 2004-2009 All-Guitar-Chords.com. All rights reserved.