new transposer      circle of 5ths    wap



Shadow

by TANCLAWS
 




D5 ... D5 ... C5 ... G5

Light distortion w/ delay... (palm mute every thing that isn't a chord)

e|----------------------------------------------------------------------|
B|-----10--10-7---7-8---8---8-7---7\5---5---5-7---7-8---3---3-5---3-----|
G|-----7---7--7---7-7---7---7-7---7\5---5---5-5---5-5---4---4-4---4-----| x4
D|-0-0-0-0-0--0-0-0-0-0-0-0-0-0-0-0---0-0-0-0-0-0-0-0-0-0-0-0-0-0-0-----|
A|----------------------------------------------------------------------|
D|----------------------------------------------------------------------|

HEAVY DISORTION w/o delay... (palm mute every thing that isn't a chord)

e|-----------------------------------------|
B|-----------------------------------------|
G|-----------------------------------------| x4
D|-----5-----------------5-----------------|
A|-----3-----5-0-3~~~----3----3---2--------|
D|-0-0---0-0-5-0-3~~~--0---0--3---2--------|


....And yes this was highly influenced by Collective Soul's "Shine"

Comments:

Guest access is read-only. To write comment, please login!



Copyright © 2004-2009 All-Guitar-Chords.com. All rights reserved.