new transposer      circle of 5ths    wap



Keep It Simple Stoopid

by TANCLAWS
 

Figured the TAB thing out now... here is a simple blues lick that i wrote... Hope it's not too confusing...

P.S. sorry for the ghetto recording... but it's all I got...

pb= prebend
brp= bend release pull-off
rp= release pull-off



e|-8p5------------------------------5----------------------------------5------5---|
B|-----5-------------------------/5---5------------------------------5---5-8b---5-|
G|-------7brp5---5h7p5~~~---------------pb7rp5---5-h-7-p-5--------7b--------------|
D|-------------7-------------------------------7-----------7~~~-------------------|
A|--------------------------------------------------------------------------------|
E|--------------------------------------------------------------------------------|




A7
e|8p5---5--------5---------------------------------------3------------------------|
B|----8---8-5-8b---5---------7-5-------------------------2------------------------|
G|-------------------7brp5---7-5-------------------2-----2------------------------|
D|-------------------------7-------7-5h7p5---------2-----2------------------------|
A|-----------------------------------------7-6-5-3-0-----0------------------------|
E|--------------------------------------------------------------------------------|


Comments:

Guest access is read-only. To write comment, please login!



Copyright © 2004-2009 All-Guitar-Chords.com. All rights reserved.