new transposer      circle of 5ths    wap



Betcha can't play this(A Harmonic Minor run)

by case211

Votes 1 | Rating 4


Alright, this one is a cool lick that I've been practicing for a while. I made it up a couple nights ago just messing around and have finally fine tuned it for sharing. I think it's a pretty cool lick that will challenge you a little bit at first. I will upload an MP3 if I get a chance to do so.
This lick is in A Harmonic Minor, and would be well suited over a progression based in an A minor scale(Think Dorian, Phrygian, Harmonic minor, etc.), but use your imagination and explore different progressions to play this over.
I've tabbed it out in three parts, due to how long the second part is on this page. Learn these parts slowly and make sure you know exactly what your fingers are going to do at each one before moving on to the next section.


Part I
Although it may seem daunting, the shift between the two sweeps shown here is rather easy if you use your index finger to fret the 17th fret on the high e, as it makes the transition easier and smoother.


e-------17h120p17----------16-19~
B-----17---------16------16-----
G---16-------------17--17-------
D-18-----------------19---------
A-------------------------------
E-------------------------------

Part II
This part is played in a triplet feel, so keep that in mind when learning the run.



e-16-19p16-16-17p16/13-13-17p13-13-16p13/12-12-16p12-12-13p12/10-10-13p10-10-12p10
B---------------------------------------------------------------------------------
G---------------------------------------------------------------------------------
D---------------------------------------------------------------------------------
A---------------------------------------------------------------------------------
E---------------------------------------------------------------------------------

Part III
For the beginning of the third part, I use my ring finger to fret both the high e and B at the 12th fret, and then pull off to my index finger fretting the 10th frets of the high e and B. I slide down to the 8th fret position to keep the flow going into the final run of this lick.



e--12p10-10/8------10p8-------------------
B-12-p1010-/88h9h10----10-9-13-12-10-9-10~
G-----------------------------------------
D-----------------------------------------
A-----------------------------------------
E-----------------------------------------


Comments:

01
09.05.2011
  gshredder2112

Challenge accepted,i will post a video in a day or 2 when i get camera

02
09.12.2011
  case211

Cool man, I just posted what I play the lick like(1st take believe it or not haha)

Guest access is read-only. To write comment, please login!



Copyright © 2004-2009 All-Guitar-Chords.com. All rights reserved.