new transposer      circle of 5ths    wap



Epic March (Fm)

by Guitarslinger124

Votes 1 | Rating 5


Hey guys... So this lick is pretty much just F Aeolian with a b5 (B) starting in the 12th position. It is pretty simple to play and sounds epic as hell.



PART I
d:------------------------------------||-------------------------------------||
A:15-----15-----15\14---15\14---15\14-||-15-----15-----15/16---15/16---15/16-||
F:12-----12-----12------12------12----||-14-----14-----14------14------14----||
C:0--0-0-0--0-0-0-----0-0-----0-0-----||-0--0-0-0--0-0-0-----0-0-----0-0-----||
G:------------------------------------||-------------------------------------||
C:------------------------------------||-------------------------------------||

d:------------------------------------||
A:16-----16-----16------16------16----||
F:15-----15-----15\14---15\14---15\14-||
C:0--0-0-0--0-0-0-----0-0-----0-0-----||
G:------------------------------------||
C:------------------------------------||

PART II
pm.pm.
d:-------------------------------------||
A:16-----16------15--------------------||
F:14-----14-14-14--17-15\14-15-14-12~~~||
C:0--0-0-0--0--0-----------------------||
G:-------------------------------------||
C:-------------------------------------||

REPEAT PART I

PART III

d:------------------------------------||
A:16-----16------15-------------------||
F:14-----14-14-14--17--15\14--14\12~~~||
C:0--0-0-0--0--0-0---17-----15--------||
G:------------------------------------||
C:------------------------------------||





Rock on!

Comments:

01
08.27.2011
  MoshZilla1016

NICE!!!!! W/Audio VERY NICE!!!!!!

02
08.27.2011
  Guitarslinger124

Haha. Yea, I'm usually too lazy to record a two second lick... But hey, it is the weekend! Rock on.

03
01.05.2012
  knocKOut

Pretty cooool!! It's fun to play as well

Guest access is read-only. To write comment, please login!



Copyright © 2004-2009 All-Guitar-Chords.com. All rights reserved.