new transposer      circle of 5ths    wap



DMAJ7 Intro

by MoshZilla1016

Votes 3 | Rating 4.67


This is a portion of a song my son and I are working on. It's played over DMaj7 progression. Sorry for the quick start on the audio but I had to make the audio as short as possible to fit the 500kb max file size.



RHYTHM
GM7 DM7 GM7 DM7 GM7 DM7 BbM7 Am7/D 2X DM7
e--7----5----7----5----7----5----1----5------+-----5---
B--7----7----7----7----7----7----3----5------+-----7---
G--7----6----7----6----7----6----2----5------+-----6---
D--5----7----5----7----5----7----3----5------+-----7---
A--5----5----5----5----5----5----1----5------+-----5---
E--------------------------------------------+---------

/=slide to note shown


GUITAR 1 2X
e---------------------------------------------------------------------+--------
B--14-h15-p14-14------------------------------------------------------+--------
G----------------14-16----14----11------------------------------------+---(14)-
D----------------------16----14----12-14---------------12-14-14/15-14-+--------
A----------------------------------------12-12---12-14----------------+--------
E---------------------------------------------------------------------+--------



GUITAR 2
e--14-h15-p14-14------------------------------------------------------+--------
B----------------15-17----15----12------------------------------------+---(14)-
G----------------------16----14----11-14---------------11-12-12/14-12-+--------
D----------------------------------------12-12---12-14----------------+--------
A---------------------------------------------------------------------+--------
E---------------------------------------------------------------------+--------

It's nothing great but I kinda like the sound.

Comments:

01
08.14.2011
  matt8675

Awsome man, My brother and I learned this. Its great.

02
08.14.2011
  MoshZilla1016

Thanks, glad you enjoyed it.

03
08.22.2011
  JointChiefOfFunk

super mellow and "slinky" man, i dig it.

04
05.23.2012
  RoyalOcean1

I love this... I could pretty much listen to this all day long

05
05.30.2012
  MoshZilla1016

Glad you liked it. Thanks.

Guest access is read-only. To write comment, please login!



Copyright © 2004-2009 All-Guitar-Chords.com. All rights reserved.