new transposer      circle of 5ths    wap



My Lick

by GuitarKid

Votes 2 | Rating 4




E:-----------------------------------------------------------------
A:-----------------------------------------------------------------
D:----------------------------------------------12-----------------
G:-9--11-12-------------------12--11--9---------------------12-------
B:---------------10--12--10-----------------------12--10-----------
E:-----------------------------------------------------------------

E:-------------------------------------------------------------------
A:---------------------------------------------------------------------
D:-----------------------------------------------------15-----------------
G:-----------------------------------------15--13------------------
B:-----------------------------15--13------------------------------------------
E:-10--13--15--16--13------------------------------------------------

Sorry about the other lick.The computer mixed all of the numbers together so here is the correct tab of my lick!

Comments:

01
02.27.2008
  Guitarslinger124

it would be easier if you learned to use the tab tool...also, you did your tab upside down....cool lick though.

Guest access is read-only. To write comment, please login!



Copyright © 2004-2009 All-Guitar-Chords.com. All rights reserved.