new transposer      circle of 5ths    wap



V3N0Ms SHRED! Lick #1

by V3N0M3333

Votes 2 | Rating 5


One of my noodling licks in V3

note: this V3 lick is leaned towards the neoclassical side



E|------------------------------------------------------10-------11-12-14-|
B|------------------11----------------11-12-14-11-12-14----14-12----------|
G|11-12-14-11-12-14----14-12-11-12-14-------------------------------------|
D|------------------------------------------------------------------------|
A|------------------------------------------------------------------------|
E|------------------------------------------------------------------------|




E|15-14-12----------14-12-10----------------------------------------10-14-13b14~~~|
B|---------15-14-12----------14-12-10----------------------------12---------------|
G|------------------------------------15-12-11----------------11------------------|
D|---------------------------------------------14-12-11----12---------------------|
A|------------------------------------------------------14------------------------|
E|--------------------------------------------------------------------------------|

Comments:

01
07.09.2011
  joedelbucohemond

OOo. Killer noodle. Gonna take a bit to get up to speed witit. NICE

02
07.09.2011
  V3N0M3333

thanks, man!...idk wat bpm im on....somewhere around 200

03
07.09.2011
  joedelbucohemond

16th notes right? i gotcha maybe at 130ish today. Can't go MAX SPEED for a couple days prolly.

04
07.09.2011
  V3N0M3333

yea 16th

05
07.10.2011
  gshredder2112

I played this at 200 bpm with 16ths,sorry,but i just
didnt get that classical feel from this.one.

06
07.10.2011
  V3N0M3333

when i said "leaned towards" i didnt mean fully lol

07
07.10.2011
  gshredder2112

It was cool,i liked but i guess i should read more thouroughly XD

08
08.21.2011
  MADGAZM

nice use of the Tritone reminds me of every Slayer song ever written.

09
08.21.2011
  V3N0M3333

i dont know if thats good or bad lol...but thanks for commenting

btw im not really a huge fan of slayer

10
09.01.2011
  MADGAZM

im not either but you used the Tritone really well and i meant that comment to be good

11
01.02.2012
  V3N0M3333

ok cool thanks =D

Guest access is read-only. To write comment, please login!



Copyright © 2004-2009 All-Guitar-Chords.com. All rights reserved.