new transposer      circle of 5ths    wap



pedal tone and sweeping

by V3N0M3333
 

i just made this up at like 1:05pm and i love it so i wanna share with all of you good people a agc. it is in the key of Emin. it uses a small amount of pedal tone and some sweep piicking. its a neoclassical sounding lick of course. the picking pattern is the same for every part, which makes it about 10x easier to play




CMaj DMaj
D U D U U U D U D U U U Repeat
E|15-14-15-12----------------------12-17-15-17-14----------------------14|
B|------------13----------------13----------------15----------------15---|
G|---------------12----------12----------------------14----------14------|
D|------------------14-12-14----------------------------16-14-16---------|
A|-----------------------------------------------------------------------|
E|-----------------------------------------------------------------------|

EbDim Emin DMaj
Repeat D U D U U U D U D U U U
E|17-15-17-14----------------------14-19-20-19-15-------17-19-17-14------|
B|------------16----------------16----------------17----------------15---|
G|---------------14----------14----------------------16----------------14|
D|------------------16-14-16---------------------------------------------|
A|-----------------------------------------------------------------------|
E|-----------------------------------------------------------------------|



Beautiful!


this lick can be followed by the very 1st lick that i put up(when put in the same key)

oh, and also it is played over these chords



CMaj & 2 & 3 & DMaj & 2 & 3 & EbDim & 2 & 3 & Emin & 2 DMaj & 2

D| 5 7 9 9 7
A| 3 5 6 7 5


Comments:

01
07.08.2011
  scottslayer

I thought the pedal tone was the bass note that is held under a progression.

02
07.30.2011
  V3N0M3333

same thing....but id rather you say the BASE note instead of the BASS note......you get me?

there is a progression being played, but after every not is played it returns to the "base" note....they are very short....actually looking back at it, they are more like trills

Guest access is read-only. To write comment, please login!



Copyright © 2004-2009 All-Guitar-Chords.com. All rights reserved.