new transposer      circle of 5ths    wap



Bass line style intro

by Nutter166

Votes 3 | Rating 3.33




Intro X3
E|---------|---------|---------|---------|----------|--------|
B|---------|---------|---------|---------|----------|--------|
G|---------|---------|---------|---------|----------|--------|
D|---------|---------|---------|---------|----------|--------|
A|---------|---------|---------|---------|----------|------5-|
E|-0-0-0-0-|-0-0-3-0-|-0-0-0-0-|-0-3-0-0-|-0-0-0-0-|-0-0-3---|

Fig1
E|----------|---------|----------|----------|
B|----------|---------|----------|----------|
G|----------|---------|----------|----------|
D|----------|---------|----------|-3^-------| half-bend.
A|-5-3------|---------|------3-5-|----------|
E|------5-3-|-5-3-5-3-|-5-3------|----------|

*Play intro line here twice*

Fig2 x2
E|---------|---------|----------|---------|----------|-------|---------|---------|---------|---------|
B|---------|---------|----------|---------|----------|-------|---------|---------|---------|---------|
G|---------|---------|----------|---------|----------|-------|---------|---------|---------|---------|
D|---------|---------|----------|---------|----------|-------|---------|---------|---------|---------|
A|---------|---------|----------|---------|----------|-------|-3-3-3-3-|-3-3-3-3-|-5-5-5-5-|-5-5-5-5-|
E|-0-0-0-0-|-0-0-0-0-|-3-3-3-3-|-3-3-3-3-|-5-5-5-5-|-5-5-5-5-|---------|---------|---------|---------|

Fig3
E|---------|---------|---------|---------|---------|---------|---------|---------|---------|---------|
B|---------|---------|---------|---------|---------|---------|---------|---------|---------|---------|
G|---------|---------|---------|---------|---------|---------|---------|---------|---------|---------|
D|---------|---------|---------|---------|---------|---------|---------|---------|---------|---------|
A|---------|---------|---------|---------|---------|---------|---------|---------|---------|---------|
E|-0-0-0-0-|-0-0-0-0-|-3-3-3-3-|-3-3-3-3-|-5-5-5-5-|-5-5-5-5-|-2-2-2-2-|-2-2-2-2-|-4-4-4-4-|-4-4-4-4-|



*Play Fig 2 here twice, then play Intro and Fig 1 with a full bend instead of a half-bend*

Simplified:
Intro x 3
Fig1 x 1
Fig2 x 2
Fig3 x 1
Fig2 x 2
Intro x 1
Fig1 x 1 (Full Bend)

Notes:
Can be played in Drop-D or Standard-E.
-Can be played on bass and guitar.
If played on Guitar, try it on Neck pick-up with tone down to 0.

Comments:

Guest access is read-only. To write comment, please login!



Copyright © 2004-2009 All-Guitar-Chords.com. All rights reserved.