new transposer      circle of 5ths    wap



Randomness.

by Barrycello
 

Hey all my fist one, I took this out of a metalcore song,
Based on the thought it's prolly a scale -still learning-.

E|------------------------
B|------------------------
G|---------------8-10-11--
D|--------7-9-10----------
A|-7-9-10-----------------
D|------------------------

Sadly i don't know any theory at all, I like metalcore so I came up
with this piece, based on the above =). It's played fast ofc.

Love to hear pointers of any kind, since i can't back it up with theory...
Enjoy


E|----------------------------------------------------
B|----------------------------------------------------
G|----------8-11-10-8---------------------------------
D|--------------------9^----------7-10-9-7--------8^--
A|-----------------------------------------10-9-7-----
D|-000-000----------------000-000---------------------
*** *** *** ***

E|---------------------------------------------
B|---------------------------------------------
G|---------------------------------------------
D|--------------------11^-----------------10^--
A|----------8/78-8-9--------------9h12p9------
D|-000-000-----------------000-000-------------
*** *** *** ***

E|--------------------------------
B|--------------------------------
G|--------------------------------
D|-----------------9^-----9-8-6^--
A|----------7h10p7------6---------
D|-000-000------------0-----------
*** *** *


The ^ are downward/single bends and the rest is straightforward i guess =P

Comments:

Guest access is read-only. To write comment, please login!



Copyright © 2004-2009 All-Guitar-Chords.com. All rights reserved.