new transposer      circle of 5ths    wap



A harmonic minor lick

by V3N0M3333
 

This is another Neo-Classical style lick i made up. The A harmonic minor scale is played descending inn fourths and is followed by an Amin Arpeggio. enjoy




|---4----||---4----||---4----||---4----||---4----||---4----||---4----||---4-----|
E|17-16-13--16-13-----13--------16-13-12--13-12-----12--------13-12-10--12-10-----|
B|--------17-----17-15--17-15-13--------15-----15-13--15-13-12--------13-----13-12|
G|--------------------------------------------------------------------------------|
D|--------------------------------------------------------------------------------|
A|--------------------------------------------------------------------------------|
E|--------------------------------------------------------------------------------|


|---4----||---4---||---4---||---4---||---4----||-3-||--3--||-3--||--3--||--3--|
E|10--------12-10-8--10-8------8---------------------8-12-8-------------------12-17~|
B|--13-12-10-------12----12-10--12-10-9-12-10-9----10------10---------------13------|
G|---------------------------------------------10-9----------9------------14--------|
D|------------------------------------------------------------10--------14----------|
A|--------------------------------------------------------------12-12-15------------|
E|----------------------------------------------------------------------------------|



On the arpeggio part where there are two twelves, you replace your pinky with your index finger to play the "wider" Amin arpeggio

Comments:

Guest access is read-only. To write comment, please login!



Copyright © 2004-2009 All-Guitar-Chords.com. All rights reserved.