new transposer      circle of 5ths    wap



Semi-Neoclassical

by Guitarslinger124

Votes 1 | Rating 5


The key is A minor. ^ = upstroke v =down stroke ~ = vibrato ph = pinch harmonic. It took me awhile to tab so there may be some mistakes.
Drop D tuning...heavy distortion....



^^^
E:-------------------------------------------------------------------------------
B:------------------------------------------------------------------------4-4----
G:-----9-12-9------8-11-8-------11-14-11-----------------9-12-9--------4-5---5---
D:-9-10------10-8-9------9-11-12--------12-11--11-10-9-10------10-9-5-7-------7--
A:-------------------------------------------12----------------------------------
D:-------------------------------------------------------------------------------
~~ ^^^
E:----------------5\4--ph5-5-7-8-10-8-7-5-7-8-10/13\12-10-12-13-15-13-12-10-12-13
B:---------------6---6-----------------------------------------------------------
G:----------5-4-7-----5----------------------------------------------------------
D:-3-2-------7-5-----------------------------------------------------------------
A:----5-3/6----------------------------------------------------------------------
D:-------------------------------------------------------------------------------
^ ^ ^ ^ ^ ^ ^ v v v
E:-15-13-12-------------------------12-17-12-15-12-13-12-14-12-15-12-------------
B:---------13-----------13-12-13--15--------------------------------13---------13
G:-----------14-11/12-14--------14------------------------------------14-----14--
D:----------------------------------------------------------------------15-14----
A:-------------------------------------------------------------------------------
D:-------------------------------------------------------------------------------
v v v v v v v v v ~~~~~
E:---------------------------------|
B:-12----13-15----14-13----13-10---|
G:-----14-------14-------14--------|
D:---14-------14-------14----------|
A:---------------------------------|
D:---------------------------------|

Comments:

01
02.18.2008
  OldeRockerChick

Splendid stuff. Thank you for sharing. xX

Guest access is read-only. To write comment, please login!



Copyright © 2004-2009 All-Guitar-Chords.com. All rights reserved.