new transposer      circle of 5ths    wap



PentaMixolydian

by MoshZilla1016

Votes 1 | Rating 4

PentaMixolydian
This lick is just a box 1 minor pentatonic except I used Maj 3rds. It uses 1-3-4-5-b7 giving it a Mixolydian feel. Tab is in A.



e------------------------------------------5-5-9-5-5----------------------------
B---------------------------------5-5-8-5-8-8-----8-8-5-8-5-5-------------------
G------------------------6-6-7-6-7-7-----------------------7-7-6-7-6-6-----------
D---------------5-5-7-5-7-7-----------------------------------------7-7-5-7-------
A------5-5-7-5-7-7----------------------------------------------------------------
E-9-5-9-9---------------------------------------------------------------------


Another lick using the same notes. Sounds like Vai or Satch.



e----5-9-5---------5-9-5---------5-9-5----------5-------------
B---5-----8-5-----5-----8-5-----5-----8-5-------5-------------
G--6---------7-6-6---------7-6-6---------7-6----6-------------
D-7-------------7-------------7-------------7---5-------------
A-----------------------------------------------7-------------
E-----------------------------------------------5-------------



Comments:

01
08.26.2010
  Jomann

I played it, and it sounds good, but I'm not sure how fast you are playing each note, is there a way you can record it? sounds great though!

02
08.30.2010
  MoshZilla1016

There is a recording but the volume is low.

03
04.05.2013
  sauce1173

Nice its a Jerry G vibe to me, Like it

Guest access is read-only. To write comment, please login!



Copyright © 2004-2009 All-Guitar-Chords.com. All rights reserved.