new transposer      circle of 5ths    wap



Avenged Sevenfold - Unholy Confessions Intro Lick/Riff

by Jemba

Votes 3 | Rating 4.33



E------------------------------------|------------------------------------
B------------------------------------|------------------------------------
G------------------------------------|------------------------------------
D------------------------------------|------------------------------------
A------5---7---8---10---8---7h8p7--3-|------10---8---7--------7---8---3---
D--0-0---0---0---0----0---0----------|--0-0----0---0------0-0---0---0-----

E-----------------------------------|------------------------------------
B-----------------------------------|------------------------------------
G-----------------------------------|------------------------------------
D-----------------------------------|--8-8---7-7-------------------------
A------5---7---8---10---8---7h8p7-3-|--8-8---7-7-------------------------
D--0-0---0---0---0----0---0---------|--8-8---7-7-------------------------


This is my first tab so I hope It is OK. This lick in in Drop D and the open string low D's are Palm Muted.

Comments:

01
07.13.2010
  MoshZilla1016

Good tab but a problem in 2nd measure. It rides the open D only on the first measure. For the second it changes to Bb or 8th fret. Then A or 7th fret. Also the last note of 2nd should be fret 4 of A string. It is in harmony of fret 2 D string.
If you don't have a second guitar player try this on A an D strings. A string fret on bottom, D on top....
3---5---7---8----7 5-7-5----2 8---7---5----5---7---2
5---7---8--10---8 7-8-7----3 10--8---7----7---8----4

02
07.15.2010
  2jpe2

not perfect but very good for a first time

03
07.24.2010
  MoshZilla1016

Hey man, in my first post I really did mean it was a good tab. I was not trying to put it down. I know guys in their twenties that won't even ride the D string. They play on the A and do hammers and pulls. You got one up on them so keep up the good work.

04
08.18.2010
  Jemba

Thanks for the comments guys

05
09.16.2010
  JazzMaverick

TALK ABOUT YOUR LICKS!!!!

Dude... this is getting so annoying going through lick after lick and seeing that no one talks about them... (Not just yours)

We need professional licks on the site - we need the licks section to be neat and understandable.

You should tell the viewer what key this lick is in, what chords it's using or even the arpeggios being used... ANYTHING... just talk about it.

06
11.03.2010
  2jpe2

JazzMaverick, its a tab from a song, he didn't write it, mayb he doesn't know, its a great lick to a great song

Guest access is read-only. To write comment, please login!



Copyright © 2004-2009 All-Guitar-Chords.com. All rights reserved.