new transposer      circle of 5ths    wap



For the ones Who Love It HEAVY!!

by ishredguitar
 



Riff 1

e|-------------------------------------------------------------|x2
B|-------------------------------------------------------------|
D|-------------------------------------------------------------|
G|----7-8-7-----5h7---------5-5h7--8-8p4-----------------------|
A|-5---------8-------5h7h8----------------7h8p7-4---4h7p4-5----|
D|--00-0-0-00-0----00-----00-0---00-0---00--------00--------00-|


Riff 2
Part A
e|----------------------------------------------------------------------------|
B|------------------------------------------------------------------------9---|
G|-----------7h10p7-6-------------7h10p7-6-------------------------------12---|
D|---7h10------------------7h10-----------------7h10-6-8h11p8-7--9h12-8-------|
A|--------6---------------------6---------------------------------------------|
D|-00----0-0----------00-00----0-0---------00-00----0-0--------00------00-----|



Part B
e|-----------------------------------------------------------------------------------
B|-----------------------------------------------------------------------------------
G|-----------------------------------------------------------------------------------
D|------8h11-7h10-------------------8h11-7h10-------------------8h11-7h10------------
A|---12-----------11--6h9p6-5----12-----------11--5h8p5-4----12-----------11--6h8p6-5
D|-00--0----0----0--00---------00--0----0----0--00---------00--0----0----0--00-------

e|-------------------------------------------------------------|
B|-------------------------------------------------------------|
G|-------------------------------------------------------------|
D|---8p5--------10p7-------------------------------------------|
A|------7-6h9-------9-8h11-------------------------------------|
D|-00---------00-----------------------------------------------|


Riff 3
Important! You have to play this part pretty fast or it wont sound good at all..
Part A
e|--------------------------------------------------------------------------------|x3
B|--------------------------------------------------------------------------------|
G|--------------------------------------------------------------------------------|
D|-10------------------10----------------10----7h10p7-6h9p6------5h8-5-5h8--------|
A|---6h9-----------------6h9---------------6h9----------------5h8---------4-4h7p4-|
D|------0-7h10p7-6h9p6------0-5h8p5-4h7p4-----0------------5h8-------------------5|

Part B
e|--------------------------------|x2
B|--------------------------------|
G|--------------------------------|
D|-----------9h12-7h10------------|
A|---9h12-----------------6h9-5h8-|
D|-12----0-12----0----0-10---0----|


This is my song
Dont dont disgrace it..
Play it HEAVY!!

Sorry no audio





Comments:

01
07.21.2010
  MoshZilla1016

I wish this had audio. Just trying to follow the tab without hearing seems like this is an awesome riff. If you get audio PLEASE POST.

02
11.15.2010
  The9thstring

Yeah, I tried to figure this out but without some notation or something I can't make sense of it. Which notes are triplets/16ths/8ths? I dunno.

Guest access is read-only. To write comment, please login!



Copyright © 2004-2009 All-Guitar-Chords.com. All rights reserved.